» » »

Malice Mizer, Brise Tabs (ver.1)

Artists:  A B C D E F G H I J K L M N O P Q R S T U V W X Y Z # 

Brise Tabs (ver.1)

Malice Mizer Tabs
 Rating:
4/5 (4 votes)
Brise lessons Tabs too difficult? Try these video lessons and learn fast
1
                Malice Mizer - Brise
Merveilles
Guitarists - Kozi and Mana

enjoy.
standard tuning

E|33-3-3-3-3-3-333|55-5-5-5-5-5-555|
B|55-5-5-5-5-5-555|77-7-7-7-7-7-777|
G|55-5-5-5-5-5-555|77-7-7-7-7-7-777|
D|55-5-5-5-5-5-555|77-7-7-7-7-7-777| x4
A|----------------|----------------|
E|----------------|----------------|

E|33-3-3-3-3-3-333|55-5-5-5-5-5-555|
B|55-5-5-5-5-5-555|77-7-7-7-7-7-777|
G|55-5-5-5-5-5-555|77-7-7-7-7-7-777|
D|55-5-5-5-5-5-555|77-7-7-7-7-7-777| x2
A|----------------|----------------|
E|----------------|----------------|

E|55-5-5-5-5-5-555|33-3-3-3-3-3-333|----------------|55-5-5-5-5-5-555|
B|66-6-6-6-6-6-666|33-3-3-3-3-3-333|55-5-5-5-5-5-555|55-5-5-5-5-5-555|
G|77-7-7-7-7-7-777|44-4-4-4-4-4-444|55-5-5-5-5-5-555|55-5-5-5-5-5-555|
D|77-7-7-7-7-7-777|55-5-5-5-5-5-555|55-5-5-5-5-5-555|77-7-7-7-7-7-777|
A|----------------|----------------|33-3-3-3-3-3-333|----------------|
E|----------------|----------------|----------------|----------------|

E|22-2-2-2-2-2-222|3---------------|
B|33-3-3-3-3-3-333|3---------------|
G|22-2-2-2-2-2-222|4---------------|
D|44-4-4-4-4-4-444|5---------------|
A|----------------|----------------|
E|----------------|----------------|

E|33-3-3-3-3-3-333|55-5-5-5-5-5-555|
B|55-5-5-5-5-5-555|77-7-7-7-7-7-777|
G|55-5-5-5-5-5-555|77-7-7-7-7-7-777|
D|55-5-5-5-5-5-555|77-7-7-7-7-7-777| x2
A|----------------|----------------|
E|----------------|----------------|

E|55-5-5-5-5-5-555|33-3-3-3-3-3-333|----------------|55-5-5-5-5-5-555|
B|66-6-6-6-6-6-666|33-3-3-3-3-3-333|55-5-5-5-5-5-555|55-5-5-5-5-5-555|
G|77-7-7-7-7-7-777|44-4-4-4-4-4-444|55-5-5-5-5-5-555|55-5-5-5-5-5-555|
D|77-7-7-7-7-7-777|55-5-5-5-5-5-555|55-5-5-5-5-5-555|77-7-7-7-7-7-777|
A|----------------|----------------|33-3-3-3-3-3-333|----------------|
E|----------------|----------------|----------------|----------------|

E|11--1-----------|2---------------|
B|11----1---------|2---------------|
G|22------2-------|3---------------|
D|33--------3-----|5---------------|
A|33--------------|5---------------|
E|----------------|----------------|

E|-5-|-7-|-7-|-8-|-8-|-7-|-8-|-0-|
B|-6-|-8-|-8-|-10|-10|-8-|-8-|-11|
G|-5-|-7-|-7-|-9-|-9-|-7-|-9-|-12|
D|---|---|---|---|---|---|---|-10|
A|---|---|---|---|---|---|---|---|
E|---|---|---|---|---|---|---|---|

E|-5-|-7-|-7-|-9-|-8-|-7-|
B|-6-|-8-|-8-|-10|-10|-8-|
G|-5-|-7-|-7-|-9-|-9-|-7-|
D|---|---|---|---|---|---|
A|---|---|---|---|---|---|
E|---|---|---|---|---|---|

E|--------3-------|----------------|
B|------1---1-----|----1-3-5-3-1---|
G|----0-------0---|----------------|
D|----------------|----------------| x3
A|----------------|----------------|
E|----------------|----------------|

E|--------3-------|
B|------1---1-----|
G|----0-------0---|
D|----------------|
A|----------------|
E|----------------|

E|33-3-3-3-3-3-333|55-5-5-5-5-5-555|
B|55-5-5-5-5-5-555|77-7-7-7-7-7-777|
G|55-5-5-5-5-5-555|77-7-7-7-7-7-777|
D|55-5-5-5-5-5-555|77-7-7-7-7-7-777| x4
A|----------------|----------------|
E|----------------|----------------|

E|33-3-3-3-3-3-333|55-5-5-5-5-5-555|
B|55-5-5-5-5-5-555|77-7-7-7-7-7-777|
G|55-5-5-5-5-5-555|77-7-7-7-7-7-777|
D|55-5-5-5-5-5-555|77-7-7-7-7-7-777| x2
A|----------------|----------------|
E|----------------|----------------|

E|55-5-5-5-5-5-555|33-3-3-3-3-3-333|----------------|55-5-5-5-5-5-555|
B|66-6-6-6-6-6-666|33-3-3-3-3-3-333|55-5-5-5-5-5-555|55-5-5-5-5-5-555|
G|77-7-7-7-7-7-777|44-4-4-4-4-4-444|55-5-5-5-5-5-555|55-5-5-5-5-5-555|
D|77-7-7-7-7-7-777|55-5-5-5-5-5-555|55-5-5-5-5-5-555|77-7-7-7-7-7-777|
A|----------------|----------------|33-3-3-3-3-3-333|----------------|
E|----------------|----------------|----------------|----------------|

E|22-2-2-2-2-2-222|3---------------|
B|33-3-3-3-3-3-333|3---------------|
G|22-2-2-2-2-2-222|4---------------|
D|44-4-4-4-4-4-444|5---------------|
A|----------------|----------------|
E|----------------|----------------|

E|33-3-3-3-3-3-333|55-5-5-5-5-5-555|
B|55-5-5-5-5-5-555|77-7-7-7-7-7-777|
G|55-5-5-5-5-5-555|77-7-7-7-7-7-777|
D|55-5-5-5-5-5-555|77-7-7-7-7-7-777| x2
A|----------------|----------------|
E|----------------|----------------|

E|55-5-5-5-5-5-555|33-3-3-3-3-3-333|----------------|55-5-5-5-5-5-555|
B|66-6-6-6-6-6-666|33-3-3-3-3-3-333|55-5-5-5-5-5-555|55-5-5-5-5-5-555|
G|77-7-7-7-7-7-777|44-4-4-4-4-4-444|55-5-5-5-5-5-555|55-5-5-5-5-5-555|
D|77-7-7-7-7-7-777|55-5-5-5-5-5-555|55-5-5-5-5-5-555|77-7-7-7-7-7-777|
A|----------------|----------------|33-3-3-3-3-3-333|----------------|
E|----------------|----------------|----------------|----------------|

E|11--1-----------|2---------------|
B|11----1---------|2---------------|
G|22------2-------|3---------------|
D|33--------3-----|5---------------|
A|33--------------|5---------------|
E|----------------|----------------|

E|-5-|-7-|-7-|-8-|-8-|-7-|-8-|-0-|
B|-6-|-8-|-8-|-10|-10|-8-|-8-|-11|
G|-5-|-7-|-7-|-9-|-9-|-7-|-9-|-12|
D|---|---|---|---|---|---|---|-10|
A|---|---|---|---|---|---|---|---|
E|---|---|---|---|---|---|---|---|

E|-5-|-7-|-7-|-9-|-8-|-7-|
B|-6-|-8-|-8-|-10|-10|-8-|
G|-5-|-7-|-7-|-9-|-9-|-7-|
D|---|---|---|---|---|---|
A|---|---|---|---|---|---|
E|---|---|---|---|---|---|

E|--------3-0-----|--------0-------|
B|------1-----1---|------3---3-----|
G|----0---------0-|----5-------5---|
D|--2-------------|--4-----------4-| x2
A|3---------------|5---------------|
E|----------------|----------------|

E|----------------|----------------|
B|----------------|----------------|
G|----------------|----------------|
D|------------1212|------------320-| x2
A|3-13--13--13----|5-35--35--35----|
E|-3---3---3------|-5---5---5------|

E|-5-|-7-|-7-|-8-|-8-|-7-|-8-|-0-|
B|-6-|-8-|-8-|-10|-10|-8-|-8-|-11|
G|-5-|-7-|-7-|-9-|-9-|-7-|-9-|-12|
D|---|---|---|---|---|---|---|-10|
A|---|---|---|---|---|---|---|---|
E|---|---|---|---|---|---|---|---|

E|-5-|-7-|-7-|-9-|-8-|-7-|-0-|-0-|
B|-6-|-8-|-8-|-10|-10|-8-|-13|-11|
G|-5-|-7-|-7-|-9-|-9-|-7-|-12|-12|
D|---|---|---|---|---|---|---|-10|
A|---|---|---|---|---|---|---|---|
E|---|---|---|---|---|---|---|---|

E|-5-|-7-|-7-|-8-|-8-|-7-|-8-|-0-|
B|-6-|-8-|-8-|-10|-10|-8-|-8-|-11|
G|-5-|-7-|-7-|-9-|-9-|-7-|-9-|-12|
D|---|---|---|---|---|---|---|-10|
A|---|---|---|---|---|---|---|---|
E|---|---|---|---|---|---|---|---|

E|-5-|-7-|-7-|-9-|-8-|-7-|-0-|
B|-6-|-8-|-8-|-10|-10|-8-|-11|
G|-5-|-7-|-7-|-9-|-9-|-7-|-12|
D|---|---|---|---|---|---|-10|
A|---|---|---|---|---|---|---|
E|---|---|---|---|---|---|---|
            
Submit corrections

comments powered by Disqus
↑ Back to top | Malice Mizer Tabs for Brise. Lyrics for acoustic guitar and electric guitar. 1 Tablatures and chords are parodies/interpretations of the original songs. You may use it for private study, scholarship, research or language learning purposes only