» » »

Bel Air Tabs (ver.1)

Artists:  A B C D E F G H I J K L M N O P Q R S T U V W X Y Z # 

Bel Air Tabs (ver.1)

Malice Mizer
Rating:
4/5 (1 vote)

Hard to play? Try these video lessons and learn fast.
                        ---------------------------------------------
	---------------------------------------------
 Grupo  : MALICE MIZER
 Canciòn: BEL AIR

 INTRO I: Piano

 - Adaptaciòn a Guitarra
 
 E||----------------------------------------------------4-5---------------||
 B||---------3-1-3--3-5-6-8-6-5--3---------3-1-3--3-5-6-----------3-5-----||
 G||*-5-4-5-------------------------5-4-5-------------------2-4-5--------*||
 D||*--------------------------------------------------------------------*||
 A||----------------------------------------------------------------------||
 E||----------------------------------------------------------------------||
 
                                                                        0:32 s.

 INTRO II: Guitarras 1 & 2...¿
 
   
   
 E||-----------------------------------------------(9-8-6)-------(9-8)--------------------|
 B||-----------------------------------------------------(9-8-9-11)----(10---11-13-14)----|
 G||----------------------5-7-9~-----------10-8-6~--6-5-3---------6-5~--10---12-14-15~----|
 D||---10-8-6-5-6-8---5-6------------5-7-8----------------6-5-6-8-------------------------|
 A||-8--------------8--------------8------------------------------------------------------|
 E||--------------------------------------------------------------------------------------|


 G|-8---6--5------------------------------------------------------------------------------|
  |   					     |                                            |
 E|---------------------------------------------------------------------------------------|
 B|------------------------------------------|------------------------10-10-8-10-11-13~~\\|
 G|-5-/5/12-9~-------------------------------*-10-9-10-9\5~----5-6-8-(8--8--6-5--6--8)----*
 D|-------------10-11-10-8-------------6-5-3-|---------------8----------------------------|
 A|------------------------11-10--8-7--------*--------------------------------------------*
 E|------------------------------------------|--------------------------------------------|


 E|----12~~--------------------------15-13-12--------------------------------------------||
 B|-11(5)-------------------------------------14-13-11-----------------------------------||
 G|(6)--------(6)-(5)-(3)------------------------------13-12-10-9------------------------||
 D|----------------------(6)-(5)-(3)------------------------------8-10~---END-INTRO------||
 A|--------------------------------------------------------------------------------------||
 E|--------------------------------------------------------------------------------------||

 =========================================================================================


 Fm            C
Sa me o akete boku o mite yo 
Fm              G
hora mada nukumori sae boku
Fm                  C             Fm
ke no te no hira ni dakarete iru ima wa
     G       C        Fm 
mou itami mo nai naka de 
A#m     Fm  A#m    D#        G#     G    C
anata wa    nani o    ima mo omotte iru no 
Fm          C                    F            A#           D#             G#              G    
kono senaka o tsutsumu yoru to yami ni e o egaku boku wa toki to iu na no mono ni ayatsurarete 

 E||------------------------------||
 B||------------------------------||
 G||---------------1-3-1----------||
 D||-6-5-3---------------3-2------||
 A||-------6-4-3-------------1-3--||
 E||------------------------------||

D#      F      A#     G          G#       F        A#              G
oozora ni ukabeta omoide no naka de odoru_futari o mitsume naite ita 
D#      F             A#     G          G#        F          A#        G   //////
saigo made sayonara sae iezu kono basho de nemuri ni ochita anata o daite itakute 

  Guitarras 

 E||----------------------6-4-3-----------------------------------------------------||
 B||--4-3-4--6-4-6--3-4-6-------6~--4-3-4--6-4-6---------3-4-3----------------------||
 G||*----------------------------------------------2-4-5-------5-4-2-4-5-----------*||
 D||*------------------------------------------------------------------------------*||
 A||--------------------------------------------------------------------------------||
 E||--------------------------------------------------------------------------------||

                                ...yure-nagara ashi o u-kase...
 
 ====================================================================================

  Piano
    D#
 E||---------------------6-4-3-----------------1-3-4-6---------------||
 B||--4-3-4--6-4-6-3-4-6-------6---4-3-4-6-4-6---------1-3-4-6-4-6---||
 G||*---------------------------------------------------------------*|| X(X(X(
 D||*---------------------------------------------------------------*||
 A||-----------------------------------------------------------------||
 E||-----------------------------------------------------------------||
 
 ====================================================================================

  Guitarras
    Fm
 E||------------------------------------------------------------------------------||
 B||-6-5-6-5\1---------10-10-8-10-11-13~~-14-13-11-13\9-9-11-13-11-12-13-17-18~~~-||
 G||-------------5-6-9------------------------------------------------------------||
 D||-----------8------------------------------------------------------------------||
 A||------------------------------------------------------------------------------||
 E||------------------------------------------------------------------------------||

Fm         C               F           A#       D#              G#                G
kono itami o masu yoru ni onaji kotoba o kurikaeshi yure nagara sora ni ashi o ukasete

 E||------------------------------||
 B||------------------------------||
 G||---------------1-3-1----------||
 D||-6-5-3---------------3-2------||
 A||-------6-4-3-------------1-3--||
 E||------------------------------|| 


D#      F      A#     G         G#     F             A#          G
oozora ni ukabeta omoide no naka de boku o mitsumeta anata wa hohoende 
D#      F            A#     G         G#     F             A#          G
saigo made ude o nobashi usurete iku koe wa ima o mitsumeru koto o inotte 
A
sotto 

F              C                 A#      G           C         D A
.................................* 
oozora ni ukabeta omoide no naka de odoru futari wa ima mo hohoende 
F              C                 A#         G           C         D A 
nagai yoru no owari o tsugeru kono ude de nemuri ni ochita anata o daite itakute 


  E||-----------12------------------||
  B||-----6//10---------------------||
  G||---7---------------------------||
  D||-8-----------------------------||
  A||-------------------------------||
  E||-------------------------------||

  OUTRO.OUTRO.OUTRO  

 E||------------------------10-8-7-------------------------------------------||
 B||-8-7-8--10-8-10--7-8-10--------10--8-7-8-10-8-10--------7-8-7------------||
 G||*-------------------------------------------------6-8-9-------9-8-6-8-9-*||
 D||*-----------------------------------------------------------------------*||
 A||-------------------------------------------------------------------------||
 E||-------------------------------------------------------------------------||


yurenagara ashi o ukase... 
yurenagara sora ni mi o yosete...


        ---------------------------------------------
	--------------------------------------------- 2:56 am :(
*Se que no está perfecta, pero es la única de la red en este formato por lo menos.
Y no está mala tampoco..........ENJOY
            
Hard to play? Try these video lessons and learn fast. | Correct




comments powered by Disqus
↑ Back to top | Tablatures and chords are parodies/interpretations of the original songs. You may use it for private study, scholarship, research or language learning purposes only