>
 >
Au Revoir

Au Revoir Bass Tabs

Malice Mizer - Au Revoir chords, tabs, tablatures, lyrics

Guitar lessons | Add/correct | Request | Top 50 tabs Artists:  A B C D E F G H I J K L M N O P Q R S T U V W X Y Z 0-9

Au Revoir Bass Tabs – Malice Mizer

CD, Sheet music, Poster

Do you like Au Revoir? Share with your friends now
Bass TabsTabs
Malice Mizer - Au Revoir
Merveilles
Bassist - Yu~ki

Standard Tuning

some weird rhythms here and i havnt shown them perfectly.
piano intro in 6/8 then drum intro in 4/4

G|---------7---|-------6---|-------6-|-4--7--4---|
D|-----------5-|-7-------7-|-4-------|---------4-|
A|----5--------|----4------|----4----|-----------|
E|-3----3------|-----------|---------|-----------|

G|-----------|-6----6-|-7-------|-8-------8-|
D|----5--9-5-|--------|----9----|----7------|
A|-7---------|----4---|-------9-|-------9---|
E|-----------|--------|---------|-----------|

G|---------7---|-----------|-------6-|-4--7--4---|
D|-----------5-|-7-------5-|-4-------|---------4-|
A|----5--------|----0--4---|----4----|-----------|
E|-3----3------|-----------|---------|-----------|

G|-----------|-6----6-|-7-------|-8---------|
D|----5--9-5-|--------|----9----|----7------|
A|-7---------|----4---|-------9-|-------9---|
E|-----------|--------|---------|-----------|

G|---------|---------|---------|---------|
D|---------|---------|---------|---------|
A|-7-7-----|-0-0-----|-5-5-----|-2-2-----|
E|---------|---------|---------|---------|

G|---------|---------|---------|---------|
D|---------|---------|-------6/|-9-------|
A|-7-7-----|-0-0-----|-5-5-----|---9-6---|
E|---------|---------|---------|---------|

G|---------|---------|---------|---------|
D|---------|---------|---------|---------|
A|-7---7---|-0-------|-5---5---|-2-------|
E|---7-----|---0-----|---5-----|---2-----|

G|---------|---------|---------7---|-------11-11-|
D|---------|---------|-------7---7-|-9---9-------|
A|-7---7---|-0-------|-5---5-------|---9---------|
E|---7-----|---0-----|---5---------|-------------|


G|---------7---|-----------|-------6-|-4--7--4---|
D|-----------5-|-7-------5-|-4-------|---------4-|
A|----5--------|----0--4---|----4----|-----------|
E|-3----3------|-----------|---------|-----------|

G|-----------|-6----6-|-7-------|-8-------8-|
D|----5--9-5-|--------|----9----|----7------|
A|-7---------|----4---|-------9-|-------9---|
E|-----------|--------|---------|-----------|

G|---------|---------|---------|---------|
D|---------|---------|---------|---------|
A|-7-7-----|-0-0-----|-5-5-----|-2-2-----|
E|---------|---------|---------|---------|

G|---------|---------|---------|---------|
D|---------|---------|-------6/|-9-------|
A|-7-7-----|-0-0-----|-5-5-----|---9-6---|
E|---------|---------|---------|---------|

G|---------|---------|---------|---------|
D|---------|---------|---------|---------|
A|-7---7---|-0-------|-5---5---|-2-------|
E|---7-----|---0-----|---5-----|---2-----|

G|---------|---------|
D|---------|-----4---|
A|-7---7---|---4-----|
E|---7-----|-2-------|

G|------7---|---------|----------|------7-6-----|
D|----------|---------|------7---|----------7-4-|
A|----------|-7-7-----|----------|-5-5----------|
E|-7-7----7-|---------|-5-5----5-|--------------|

G|----------|------------|-------|--------|
D|--------5-|-3----------|-4-----|------8-|
A|-------5--|------4---4-|-------|---4----|
E|-3-3--3---|---4----4---|---2---|-2------|

G|------7---|---------|----------|------7-6-----|
D|----------|---------|------7---|----------7-4-|
A|----------|-7-7-----|----------|-5-5----------|
E|-7-7----7-|---------|-5-5----5-|--------------|

G|----------|------------|-------|--------|
D|--------5-|-3----------|-4-----|-----4--|
A|-------5--|------4---4-|-------|---4----|
E|-3-3--3---|---4----4---|---2---|-2------|

G|----------|----------|----------|----------|
D|-2-2-22---|-------2--|----------|-----0-4--|
A|-------2--|-0-0-04-4-|-5-5-55-4-|-2-2--2-2-|
E|--------3-|----------|-------5--|----------|

G|----------|----------|----------|------6---|
D|----------|--------4-|----------|-----4-4--|
A|-------2--|-------4--|-4-4-44---|---4------|
E|-0-0-00-3-|-2-2-22---|-------14-|-2--------|

G|----------|----------|----------|----------|
D|-2-2-22---|-------2--|----------|-----0-4--|
A|-------2--|-0-0-04-4-|-5-5-55-4-|-2-2--2-2-|
E|--------3-|----------|-------5--|----------|

G|----------|----------|----------|------|
D|----------|----------|--------2-|-4----|
A|-------2--|-------4--|-------2--|------|
E|-0-0-00-3-|-2-2-22-2-|-0-0-00---|------|

G|------7---|-----------|-------6-|-4--7--4---|
D|----5---5-|-7-------5-|-4-------|---------4-|
A|----------|----0--4---|----4----|-----------|
E|-3--------|-----------|---------|-----------|

G|-----------|-6----6-|-7-------|-8------8-|
D|----5--9-5-|--------|----9----|----7-----|
A|-7---------|----4---|-------9-|------9---|
E|-----------|--------|---------|----------|

G|------7---|------6----|-------6-|-4--7--4---|
D|----5---5-|-7---------|-4-------|---------4-|
A|----------|----4--0---|----4----|-----------|
E|-3--------|-----------|---------|-----------|

G|-----------|-6----6-|
D|----5--9-5-|--------|
A|-7---------|----4---|
E|-----------|--------|


G|------7---|--------9-|----------|------7-6-----|
D|----------|----------|------7---|----------7-4-|
A|----------|-7-7---7--|----------|-5-5----------|
E|-7-7----7-|------7---|-5-5----5-|--------------|

G|----------|------------|-------|--------|
D|--------5-|-3----------|-4-----|------8-|
A|-------5--|------4---4-|-------|---4----|
E|-3-3--3---|---4----4---|---2---|-2------|

G|------7---|---------|----------|------7-6-----|
D|----------|---------|------7---|----------7-4-|
A|----------|-7-7-----|----------|-5-5----------|
E|-7-7----7-|---------|-5-5----5-|--------------|

G|----------|------------|-------|--------|
D|--------5-|-3----------|-4-----|-----4--|
A|-------5--|------4---4-|-------|---4----|
E|-3-3--3---|---4----4---|---2---|-2------|

G|----------|----------|----------|----------|
D|-2-2-22---|-------2--|----------|-----0-4--|
A|-------2--|-0-0-04-4-|-5-5-55-4-|-2-2--2-2-|
E|--------3-|----------|-------5--|----------|

G|----------|----------|----------|------6---|
D|----------|--------4-|----------|-----4-4--|
A|-------2--|-------4--|-4-4-44---|---4------|
E|-0-0-00-3-|-2-2-22---|-------14-|-2--------|

G|----------|----------|----------|----------|
D|-2-2-22---|-------2--|----------|-----0-4--|
A|-------2--|-0-0-04-0-|-5-5-55-4-|-2-2--2-2-|
E|--------3-|----------|-------5--|----------|

G|---------|----------|----------|----------|
D|-2-2-----|--------4-|-2-2----2-|-4-4----4-|
A|------2--|------4---|------2---|------4---|
E|-------3-|-2-2------|----------|----------|

G|---------|----|
D|-2-2-----|-4--|
A|------2--|----|
E|---------|----|

G|------7---|-----------|-------6-|-4--7--4---|
D|----5---5-|-7-------7-|-4-------|---------4-|
A|----------|----0--4---|----4----|-----------|
E|-3--------|-----------|---------|-----------|

G|-----------|-6----6-|-7-------|--------|
D|----5--9-5-|--------|----9----|--------|
A|-7---------|----4---|-------9-|-6--9---|
E|-----------|--------|---------|------7-|

G|--------|--------|-------6-|-4--7--4---|
D|-5---5--|-7---7--|-4-------|---------4-|
A|--------|--------|----4----|-----------|
E|---3----|---5----|---------|-----------|

G|------4---|-6----6-|-7-------|--------|
D|----5---5-|--------|----9----|--------|
A|----------|----4---|-------9-|-6--9---|
E|-0--------|--------|---------|------7-|

G|--------|--------|-------6-|-4--7--4---|
D|-5---5--|-7---7--|-4-------|---------4-|
A|--------|--------|----4----|-----------|
E|---3----|---5----|---------|-----------|

G|------4---|-6----6-|-7-------|-8------8-|
D|----5---5-|--------|----9----|----7-----|
A|----------|----4---|-------9-|------9---|
E|-0--------|--------|---------|----------|

G|--------|--------|-------6-|-4--7--4---|
D|-5---5--|-7---7--|-4-------|---------4-|
A|--------|--------|----4----|-----------|
E|---3----|---5----|---------|-----------|

G|------4---|-6----6-|-7-------|-8------8-|
D|----5---5-|--------|----9----|----7--7--|
A|----------|----4---|-------9-|------9---|
E|-0--------|--------|---------|----------|

G|--------|--------|-------6-|-4--7--4---|
D|-5---5--|-7---7--|-4-------|---------4-|
A|--------|--------|----4----|-----------|
E|---3----|---5----|---------|-----------|

G|------4---|-6----6-|-7-------|-8------8-|
D|----5---5-|--------|----9----|----7--7--|
A|----------|----4---|-------9-|------9---|
E|-0--------|--------|---------|----------|

repeat to fade....





Comments


Popular Malice Mizer tabs & chords
Beast Of Blood Bass Tabs
Brise Bass Tabs
Eege Sugisarishi Kase To Tomo Ni Bass Tabs
Gekka No Yasukyoku Bass Tabs
Ma Cherie Bass Tabs
Mizerable Chords
Au Revoir Tabs
Baroque 1 Tabs
Portugal Intro Tabs
Gekka No Yasoukyoku Ukulele


Song lyrics



↑ Back to top | Tablatures and chords are parodies/interpretations of the original songs. You may use it for private study, scholarship, research or language learning purposes only
© 2014 AZChords.com Contact us | Privacy policy | DMCA | Add/correct tabs | Request tabs | Top 50 tabs