» » »

Malice Mizer, Apres Midi Bass tabs (ver.1)

Artists:  A B C D E F G H I J K L M N O P Q R S T U V W X Y Z # 

Apres Midi Bass tabs (ver.1)

Malice Mizer Tabs
 Rating:
4/5 (4 votes)
Apres Midi lessons Tabs too difficult? Try these video lessons and learn fast
1
                Malice Mizer - Apres Midi
Bassist - Yu~ki

Standard Tuning      / = slide to

long tab :\
timings kind of shown, you'll be able to 
work it out though if you listen to the song
you clever person you.

G|--------|
D|----1-2-|
A|--------|
E|--------|

G|---------|---------|---------|--------|
D|---------|---------|---------|--------|
A|---------|---------|---------|6-666-66|
E|1-111-11-|4-444-44-|3-333-33-|--------|

G|---------|---------|---------|----------|
D|---------|---------|---------|------1-2-|
A|5-555-55-|2-222-22-|---------|3-333-----|
E|---------|---------|3-333-33-|----------|

G|---------|---------|---------|--------|
D|---------|---------|---------|--------|
A|---------|---------|---------|6-666-66|
E|1-111-11-|4-444-44-|3-333-33-|--------|

G|---------|---------|-----------|--------|
D|---------|---------|-----------|--------|
A|---------|2-222-22-|3-333------|----6---|
E|1-111-11-|---------|-----3-/11-|------3-|



G|--------|---------|--------|------------|
D|--------|---------|--------|------------|
A|----5---|----5--5-|----6---|----6/8/6---|
E|1-3-----|1-3---4--|3-5-----|3-5-------5/|

G|--------|---------|---------|------------|
D|--------|---------|---------|------------|
A|----5---|----5--5-|----6--6-|----6/8/6---|
E|1-3-----|1-3---4--|3-5---6--|3-5-------5/|

G|---------|---------|---------|------------|
D|---------|---------|---------|------------|
A|----5--5-|----5--5-|----6--6-|----6/8/6---|
E|1-3---3--|1-3---4--|3-5---6--|3-5-------5/|

G|---------|---------|---------|-----------|
D|---------|---------|---------|-----------|
A|----5--5-|----5--5-|----6--6-|----6------|
E|1-3---3--|1-3---4--|3-5---6--|3-5----3-4-|



G|----------------|---------------|---------------|----------------|
D|----------------|---------------|---------------|----------------|
A|1-1-1-11-11-1-11|3-3-3-33-33----|--------------3|4-4-4-44-44-4-44|
E|----------------|------------3-0|1-1-1-11-11-4--|----------------|

G|---------------|---------------|----------------|----------------|
D|---------------|---------------|----------------|----------------|
A|5-5-5-55-55----|---------------|3-3-3-33-33-3-33|--6-------------|
E|------------4-1|3-3-3-33-33-1-3|----------------|----------------|



G|---------|---------|---------|---------|
D|---------|---------|---------|---------|
A|---------|5-555--5-|---------|3-333--3-|
E|4-444-44-|------6--|3-333-33-|------4--|

G|---------|---------|---------|---------|
D|---------|---------|---------|---------|
A|-------3-|2-222--2-|6-666-66-|---------|
E|1-111-1--|------3--|---------|3-333-33-|

G|---------|---------|---------|---------|
D|---------|---------|---------|---------|
A|---------|-------5-|6-666-66-|3-333-33-|
E|4-444-44-|6-666-6--|---------|---------|

G|---------|---------|---------|---------|
D|---------|---------|---------|---------|
A|---------|1-111-13-|6-666-66-|---------|
E|1-111-11-|---------|---------|3-333-33-|



G|---------|---------|---------|--------|
D|---------|---------|---------|--------|
A|---------|---------|---------|6-666-66|
E|1-111-11-|4-444-44-|3-333-33-|--------|

G|---------|---------|---------|----------|
D|---------|---------|---------|------1-2-|
A|5-555-55-|2-222-22-|---------|3-333-----|
E|---------|---------|3-333-33-|----------|

G|---------|---------|---------|--------|
D|---------|---------|---------|--------|
A|---------|---------|---------|6-666-66|
E|1-111-11-|4-444-44-|3-333-33-|--------|

G|---------|---------|-----------|--------|
D|---------|---------|-----------|--------|
A|---------|2-222-22-|3-333------|----6---|
E|1-111-11-|---------|-----3-/11-|------3-|


G|--------|---------|--------|------------|
D|--------|---------|--------|------------|
A|----5---|----5--5-|----6---|----6/8/6---|
E|1-3-----|1-3---4--|3-5-----|3-5-------5/|

G|--------|---------|---------|------------|
D|--------|---------|---------|------------|
A|----5---|----5--5-|----6--6-|----6-------|
E|1-3-----|1-3---4--|3-5---6--|3-5-----3-4-|



G|----------------|---------------|---------------|----------------|
D|----------------|---------------|---------------|----------------|
A|1-1-1-11-11-1-11|3-3-3-33-33----|--------------3|4-4-4-44-44-4-44|
E|----------------|------------3-0|1-1-1-11-11-4--|----------------|

G|---------------|---------------|----------------|----------------|
D|---------------|---------------|----------------|----------------|
A|5-5-5-55-55----|---------------|3-3-3-33-33-3-33|--6-------------|
E|------------4-1|3-3-3-33-33-1-3|----------------|----------------|



G|---------|---------|---------|---------|
D|---------|---------|---------|---------|
A|---------|5-555--5-|---------|3-333--3-|
E|4-444-44-|------6--|3-333-33-|------4--|

G|---------|---------|---------|---------|
D|---------|---------|---------|---------|
A|-------3-|2-222--2-|6-666-66-|---------|
E|1-111-1--|------3--|---------|3-333-33-|

G|---------|---------|---------|---------|
D|---------|---------|---------|---------|
A|---------|-------5-|6-666-66-|3-333-33-|
E|4-444-44-|6-666-6--|---------|---------|

G|---------|---------|---------|---------|
D|---------|---------|---------|---------|
A|---------|1-111-13-|6-666-66-|---------|
E|1-111-11-|---------|---------|3-333-33-|



G|--------|
D|--------|
A|----1---|
E|1-------|

G|--------|--------|--------|--------|
D|--------|--------|--------|--------|
A|--------|--------|3---5---|--------|
E|--------|--------|--------|5---3---|



G|--------|--------|--------|--------|
D|--------|--------|--------|--------|
A|------5-|6-653---|----2-5-|3-5-63--|
E|1-456---|------3-|4-43----|------3-|

G|--------|--------|--------|--------|
D|--------|--------|--------|--------|
A|------5-|6-653---|------5-|6-------|
E|1-456---|------3-|4--31---|----3-4-|



G|--------|--------|--------|---------|
D|--------|--------|--------|---------|
A|1--1----|3--3----|--------|4------4-|
E|-----431|-----333|1--1-111|--4-1-4--|

G|---------------|---------------|----------------|----------------|
D|---------------|---------------|----------------|----------------|
A|5-5-5-55-55----|---------------|3-3-3-33-33-3-33|--6-------------|
E|------------4-1|3-3-3-33-33-1-3|----------------|----------------|



G|---------|---------|---------|---------|
D|---------|---------|---------|---------|
A|---------|5-555--5-|---------|3-333--3-|
E|4-444-44-|------6--|3-333-33-|------4--|

G|---------|---------|---------|---------|
D|---------|---------|---------|---------|
A|-------3-|2-222--2-|6-666-66-|---------|
E|1-111-1--|------3--|---------|3-333-33-|

G|---------|---------|---------|---------|
D|---------|---------|---------|---------|
A|---------|-------5-|6-666-66-|3-333-33-|
E|4-444-44-|6-666-6--|---------|---------|

G|---------|---------|---------|---------|
D|---------|---------|---------|---------|
A|---------|1-111-13-|6-666-66-|---------|
E|1-111-11-|---------|---------|3-333-3--|



G|--------|--------|--------|--------|--------|
D|--------|--------|--------|--------|--------|
A|8-------|6-------|5-------|3-------|6-------|
E|--------|--------|--------|--------|--------|



G|---------|---------|---------|---------|
D|---------|---------|---------|---------|
A|---------|---58-5--|6-666-66-|3-333-33-|
E|4-444-44-|6-6----6-|---------|---------|

G|---------|---------|---------|---------|
D|---------|---------|---------|---------|
A|---------|1-111-13-|6-666-66-|---------|
E|1-111-11-|---------|---------|3-333-3--|



G|--------|--------|
D|--------|--------|
A|-------5|6-------| x3
E|1-456---|--------|

G|--------|--------|
D|--------|--------|
A|--------|6-------|
E|1-456---|--------|
            
Submit corrections

comments powered by Disqus
↑ Back to top | Malice Mizer Bass for Apres Midi. Lyrics for acoustic guitar and electric guitar. 1 Tablatures and chords are parodies/interpretations of the original songs. You may use it for private study, scholarship, research or language learning purposes only