» » »

Malevolent Creation, Viral Release Tabs (ver.1)

Artists:  A B C D E F G H I J K L M N O P Q R S T U V W X Y Z # 

Viral Release Tabs (ver.1)

Malevolent Creation Tabs
 Rating:
4/5 (4 votes)
Viral Release lessons Tabs too difficult? Try these video lessons and learn fast
                Band: Malevolent Creation
Tuning: C# F# B E G# C#

Riff A                                                          1,2,3.
|----------------------------------|----------------------------------|
|----------------------------------|----------------------------------|
|----------------------------------|----------------------------------|
|----------------------------------|----------------------------------|
|----------------------------------|----------------------------------|
|--5-5-5-5-5-5-5-5-6-5-5-5-5-5-5-5-|--8-5-5-5-5-5-5-5-6-6-6-6-8-8-8-8-|

                                                                4.....
|----------------------------------|----------------------------------|
|----------------------------------|----------------------------------|
|----------------------------------|----------------------------------|
|----------------------------------|----------------------------------|
|----------------------------------|--6-6-6-6---------6-6-6-6-8-8-8-8-|
|--5-5-5-5-8-8-8-8-6-6-6-6-5-5-5-5-|----------5-5-5-5-----------------|


Riff B                                                                1,3.
|----------------------------------|--------------------------------------|
|----------------------------------|--------------------------------------|
|----------------------------------|--------------------------------------|
|----------------------------------|-----------------------------7-7-7-7--|
|--7-7-7-7-7-7-7-7-7-7-7-7-7-7-7-7-|-10-10-10-10-9-9-9-9-7-7-7-7----------|
|----------------------------------|--------------------------------------|
                                                                      2...
|----------------------------------|--------------------------------------|
|----------------------------------|--------------------------------------|
|----------------------------------|--------------------------------------|
|----------------------------------|--------------------------------------|
|--7-7-7-7-7-7-7-7-7-7-7-7-7-7-7-7-|-10-10-10-10-9-9-9-9-5-5-5-5-5-5-5-5--|
|----------------------------------|--------------------------------------|

                                                                                 4...
|----------------------------------|-------------------------------------------------|
|----------------------------------|-------------------------------------------------|
|----------------------------------|-------------------------------------------------|
|----------------------------------|-------------------------------------------------|
|--8-8-8-8-8-8-8-8-8-8-8-8-8-8-8-8-|-10-10-10-10-10-10-10-10-10-10-10-10-10-10-10-10-|
|----------------------------------|-------------------------------------------------|

Riff C                                                            1,3.
|----------------------------------|----------------------------------|
|----------------------------------|----------------------------------|
|----------------------------------|----------------------------------|
|----------------------------------|----------------------------------|
|----------------------------------|--------------------------5-5-5-5-|
|--0-0-0-0-0-0-0-0-0-0-0-0-0-0-0-0-|--8-8-8-8-7-7-7-7-0-0-0-0---------|


                                                                  2...
|----------------------------------|----------------------------------|
|----------------------------------|----------------------------------|
|----------------------------------|----------------------------------|
|----------------------------------|----------------------------------|
|----------------------------------|----------------------------------|
|--0-0-0-0-0-0-0-0-0-0-0-0-0-0-0-0-|--5-5-5-5-3-3-3-3-0-0-0-0-2-2-2-2-|


                                                                  4...
|----------------------------------|----------------------------------|
|----------------------------------|----------------------------------|
|----------------------------------|----------------------------------|
|----------------------------------|----------------------------------|
|--1-1-1-1-1-1-1-1-1-1-1-1-1-1-1-1-|--3-3-3-3-3-3-3-3-3-3-3-3-3-3-3-3-|
|--3-3-3-3-3-3-3-3-3-3-3-3-3-3-3-3-|--5-5-5-5-5-5-5-5-5-5-5-5-5-5-5-5-|


Riff D
|--------------------------|-------------------------|
|--------------------------|-------------------------|
|--------------------------|-------------------------|
|--------------------------|-------------------------|
|--------------------------|-----------------2---2---|
|--0--0--0--0--1--0--0--0--|--0--0--1--0--0--4---4---|
            
Submit corrections

comments powered by Disqus
↑ Back to top | Malevolent Creation Tabs for Viral Release. Lyrics for acoustic guitar and electric guitar. Tablatures and chords are parodies/interpretations of the original songs. You may use it for private study, scholarship, research or language learning purposes only