>
 >
To Die Is At Hand

To Die Is At Hand Guitar Tabs

Malevolent Creation - To Die Is At Hand chords, tabs, tablatures, lyrics

Guitar lessons | Add/correct | Request | Top 50 tabs Artists:  A B C D E F G H I J K L M N O P Q R S T U V W X Y Z 0-9

To Die Is At Hand Guitar Tabs – Malevolent Creation

CD, Sheet music, Poster

Do you like To Die Is At Hand? Share with your friends now
Tabs
MALEVOLENT CREATION
To Die is at Hand
1998 Pavement Music




Legend:

h        hammer-on             
p        pull-off         
PM |--|  palm mute        
"        tremolo picking (or 32th note)
/        slide up            
\        slide down       
4/4      time signature   
( )      tie note
x        muffled note
  

Tune Down 1.5 step  (6:Db 5:Gb 4:Cb 3:E 2:Ab 1:Db) 

 Intro  (Gtr 1)          Riff A
|----------------------||-----------------|-----------------|-----------------|
|----------------------||-----------------|-----------------|-----------------|
|----------------------||-----------------|-----------------|-----------------|
|-10\8-10/11-10\8-10/11||-----------------|-----------------|-----------------|
|-8-\6-8-/9--8-\6-8-/9-||-----------------|-----------------|-----------------|
|----------------------||-000-000-000-0-0-|-000-000-000-0-0-|-000-000-000-0-0-|
|                                                                             |
|       (Gtr 2)          Riff A1                                              |
|----------------------||-----------------|-----------------|-----------------|
|----------------------||-----------------|-----------------|-----------------|
|----------------------||-----------------|-----------------|-----------------|
|-10\8-10/11-10\8-10/11||-9---------------|-----------------|-----------------|
|-8-\6-8-/9--8-\6-8-/9-||-7---------------|-----------------|-----------------|
|----------------------||-0---------------|-----------------|-----------------|

                        (end Riff A)  Riff B
|-----------------|-----------------||------------------|-----------------|
|-----------------|-----------------||------------------|-----------------|
|-----------------|-----------------||*-----------------|-----------------|
|-----66665555----|-----666688885555||*-----------------|-----------------|
|-8888--------7777|-8888------------||------------------|-----------------|
|-----------------|-----------------||--000-000-000-0-0-|-000-000-000-0-0-|
|                                                                         |
|                      (end Riff A1)  Riff B1                             |
|-----------------|-----------------||------------------|-----------------|
|-----------------|-----------------||------------------|-----------------|
|-----44443333----|-----444466663333||*-----------------|-----------------|
|-6666--------5555|-6666------------||*-----------------|-----------------|
|-----------------|-----------------||------------------|-----------------|
|-----------------|-----------------||--000-000-000-0-0-|-000-000-000-0-0-|

                    _____________________   __________________________________
                   |1.3                  | |2.4.                 (end Riff B) |
|-----------------|-----------------------|-----------------|------------------|
|-----------------|-----------------------|-----------------|------------------|
|-----------------|----------------------*|-----------------|-----------------*|
|-----------------|-10\8-10/11-10\8-10/11*|-----66665555----|-----666688885555*|
|-----------------|-8-\6-8-/9--8-\6-8-/9--|-8888--------7777|-8888-------------|
|-000-000-000-0-0-|-----------------------|-----------------|------------------|
|                                                                              |
|                                                               (end Riff B1)  |
|-----------------|-----------------------|-----------------|------------------|
|-----------------|-----------------------|-----------------|------------------|
|-----------------|----------------------*|-----44443333----|-----444466663333*|
|-----------------|-10\8-10/11-10\8-10/11*|-6666--------5555|-6666------------*|
|-----------------|-8-\6-8-/9--8-\6-8-/9--|-----------------|------------------|
|-000-000-000-0-0-|-----------------------|-----------------|------------------|


|-----------------|
|-----------------|
|-----------------|
|-----------------|
|-2---------------|
|-0---------------|

 Chorus
  Riff C  (Gtr 1)
|-----------------|-----------------|-----------------|-----------------|
|-----------------|-----------------|-----------------|-----------------|
|*----------------|-----------------|-----------------|-----------------|
|*----------------|-----------------|-----------------|-----------------|
|-------------1111|-----------------|-------------1111|-0000000033331111|
|-333333333333----|-2222222222222222|-333333333333----|-----------------|
|                                                                       |
| Riff C1 (Gtr 2)                                                       |
|-----------------|-----------------|-----------------|-----------------|
|-----------------|-----------------|-----------------|-----------------|
|*----------------|-----------------|-----------------|-----------------|
|*----------------|-----------------|-----------------|-----------------|
|-------------1111|-----------------|-------------1111|-0000000033331111|
|-333333333333----|-2222222222222222|-333333333333----|-----------------|

                                                           (end Riff C)
|-----------------|-----------------|-----------------|------------------|
|-----------------|-----------------|-----------------|------------------|
|-----------------|-----------------|-----------------|-----------------*|
|-----------------|-----------------|-----------------|-----------------*|
|-------------1111|-----------------|-------------1111|------------------|
|-333333333333----|-2222222222222222|-333333333333----|-11111111111111111|
|                                                                        |
|                                                          (end Riff C1) |
|-----------------|-----------------|-----------------|------------------|
|-----------------|-----------------|-----------------|------------------|
|-----------------|-----------------|-----------------|-----------------*|
|-----------------|-----------------|-----------------|-----------------*|
|-1111111111114444|-0000000000000000|-1111111111114/5-|-0000000000000000-|
|-----------------|-----------------|-----------------|------------------|
                                                         ________________
 Riff D                                                 |1.3.            |
|------------------|-----------------|-----------------|------------------|
|------------------|-----------------|-----------------|------------------|
|*-----------------|-----------------|-----------------|-----------------*| 
|*-----------------|-----------------|-----------------|-----------------*|
|------------------|---------7-5-4---|-----------------|---------11110000-|
|--3333333333333333|-222222225-3-2---|-3333333333333333|-22222222---------|
 
  ________________
 |2.4 (end Riff D)| 
 |(Gtr 1)         | Fill 1............................|
|------------------|-----------------|-----------------|
|------------------|-----------------|-----------------|
|-----------------*|-----------------|-----------------|
|-----------------*|-----------------|---------11111111|
|-------------5555-|-3333333333333333|-22222222--------|
|-222222223333-----|-----------------|-----------------|
|                                                      |
| (Gtr 2)                                              |
|------------------|-----------------|-----------------|
|------------------|-----------------|-----------------|
|-----------------*|-----------------|-----------------|
|-----------------*|-----------------|---------44444444|
|-------------5555-|-6666666666666666|-55555555--------|
|-222222223333-----|-----------------|-----------------|

 Riff C2  w/Riff C 
 (Gtr 2)
|-----------------|-----------------|-----------------|-----------------|
|-----------------|-----------------|-----------------|-----------------|
|-----------------|-----------------|-----------------|-----------------|
|-----------------|-----------------|-----------------|-----------------|
|-----------------|-----------------|-------------1111|-0000000033331111|
|-3333333333333333|-2222222222222222|-333333333333----|-----------------|

|-----------------|-----------------|-----------------|-----------------|
|-----------------|-----------------|-----------------|-----------------|
|-----------------|-----------------|-----------------|-----------------|
|-----------------|-----------------|-----------------|-----------------|
|-1111111111114444|-0000000000000000|-1111111111114/5-|-0000000000000000|
|-----------------|-----------------|-----------------|-----------------|

play Riff C & C1

 Bridge
 Riff E (Gtr 1)
|------------------|-----------------|-----------------|-----------------|      
|------------------|-----------------|-----------------|-----------------|      
|*-----------------|-----------------|-----------------|-----------------|
|*-----------------|-----------------|-----------------|-----------------|      
|------------------|-----------------|-----------------|-----------------|      
|--000-000-000-0-0-|-000-000-000-0-0-|-000-000-000-0-0-|-000-000-000-0-0-|            
|                                                                        |
|       (Gtr 2)*                                                         |
|------------------|-----------------|-----------------|-----------------|      
|------------------|-----------------|-----------------|-----------------|      
|------------------|-----------------|-----------------|-----------------|
|------------------|-----------------|-----------------|-----------------|      
|------------------|-----------------|-----------------|-----------------|      
|------------------|-----------------|-----------------|-------------12\\|
 *At 2nd time play 
  same thing as Gtr 1

|-----------------|--------|-----------------|-----------------|
|-----------------|--------|-----------------|-----------------|
|-----------------|---*/---|-----------------|-----------------|
|-----------------|---/*---|-----------------|-----------------|
|-----------------|--------|-5---------------|-6-----------3---|
|-000-000-000-0-0-|--------|-3---------------|-4-----------1---|


|-----------------|--------|--------|----------------------|-----------------|
|-----------------|--------|--------|----------------------|-----------------|
|-----------------|---*/---|---*/---|----------------------|-----------------|
|-----------------|---/*---|---/*---|-10\8-10/11-10\8-10/11|-----------------|
|-----------------|--------|--------|-8-\6-8-/9--8-\6-8-/9-|-----------------|
|-000-000-000-0-0-|--------|--------|----------------------|-000-000-000-0-0-|
                                     
       
|-----------------|-----------------|------------------||------------------|
|-----------------|-----------------|------------------||------------------|
|-----------------|-----------------|-----------------*||*-----------------|
|-----------------|-----------------|-----------------*||*-----------------|
|-----------------|-5---------------|-6-------5---3----||--2---------------|
|-000-000-000-0-0-|-3---------------|-4-------3---1----||--0---------------|


|-----------------|-----------------|-----------------|-----------------|
|-----------------|-----------------|-----------------|-----------------|
|-----------------|-----------------|-----------------|-----------------|
|-----------------|-----------------|-----------------|-----------------|
|(2)---------/5---|-2---------------|(2)---------/6---|-2---------------|
|(0)---------/3---|-0---------------|(0)---------/4---|-0---------------|


|-----------------|-----------------|-----------------|---------------------|
|-----------------|-----------------|-----------------|--play-Riff-A-&-A1---|
|-----------------|-----------------|----------------*|---------------------|
|-----------------|-----------------|----------------*|---------------------|
|(2)--------------|-3---------------|(3)--------------|---------------------|
|(0)--------------|-1---------------|(1)--------------|---------------------|

play Riff B & B1 4 times

 then: 
  Gtr 1
|-----------------| 
|-----------------| 
|-----------------| 
|-----------------| 
|-----------------| 
|-0000000000000000| 
|                 |
| Gtr 2           |
|-----------------|
|-----------------|
|-----------------|
|-----------------|
|-----------------|
|-----------------|

play Riff C & C1 2 times
play Riff D 4 times
play Fill 1
play Riff C & C2 

  (Gtr 1)
|-----------------|-----------------|-----------------|-----------------|
|-----------------|-----------------|-----------------|-----------------|
|-----------------|-----------------|-----------------|-----------------|
|-----------------|-----------------|-----------------|-----------------|
|-------------1111|-----------------|-------------1111|-0000000033331111|
|-333333333333----|-2222222222222222|-333333333333----|-----------------|
|                                                                       |
| (Gtr 2)                                                               |
|-----------------|-----------------|-----------------|-----------------|
|-----------------|-----------------|-----------------|-----------------|
|-----------------|-----------------|-----------------|-----------------|
|-----------------|-----------------|-----------------|-----------------|
|-------------1111|-----------------|-------------1111|-0000000033331111|
|-333333333333----|-2222222222222222|-333333333333----|-----------------| 

 end with:
|-----------------|-----------------|-----------------|-----------------|
|-----------------|-----------------|-----------------|-----------------|
|-----------------|-----------------|-----------------|-----------------|
|-----------------|-----------------|-------------3---|-----------------|
|-------------1111|-----------------|-------------1---|-3---------------|
|-333333333333----|-2222222222222222|-333333333333----|-1---------------|
|                                                                       |
|                                                                       |
|-----------------|-----------------|-----------------|-----------------|
|-----------------|-----------------|-----------------|-----------------|
|-----------------|-----------------|-----------------|-----------------|
|-----------------|-----------------|-------------5\--|-----------------|
|-1111111111114444|-0000000000000000|-1111111111113\--|-3---------------|
|-----------------|-----------------|-----------------|-1---------------|





Comments


Popular Malevolent Creation tabs & chords
Compulsive Tabs
Impaled Existence Tabs
In Cold Blood Tabs
Memorial Arrangements Tabs
Memorial Arrangements 1 Tabs
Multiple Stab Wounds Tabs
Pillage And Burn Tabs
Preemptive Strike Tabs
Premature Burial Tabs
The Will To Kill Tabs


Song lyrics



↑ Back to top | Tablatures and chords are parodies/interpretations of the original songs. You may use it for private study, scholarship, research or language learning purposes only
© 2014 AZChords.com Contact us | Privacy policy | DMCA | Add/correct tabs | Request tabs | Top 50 tabs