>
 >
The Will To Kill

The Will To Kill Guitar Tabs

Malevolent Creation - The Will To Kill chords, tabs, tablatures, lyrics

Guitar lessons | Add/correct | Request | Top 50 tabs Artists:  A B C D E F G H I J K L M N O P Q R S T U V W X Y Z 0-9

The Will To Kill Guitar Tabs – Malevolent Creation

CD, Sheet music, Poster

Do you like The Will To Kill? Share with your friends now
Tabs
Band: Malevolent Creation



.  - palm mute           /  - slide up to
\  - slide down to       ~  - vibrato
h  - hammer on           b  - Bend
p  - pull off            Suffixes for bend
t  - tap                 f  - full bend    h - half bend
ph - pinched harmonic    q  - quarter bend t - tap bend
*  - see comment         ^  - Hold bend    r release bend
x  - Stuccatto           ~  - vibrato bend
,  - slight palm mute    () - ghost note, sustained note
"  - tremolo note        <> - Trill

Tuning C#, F#, B, E, G#, C#


Riff 1 intro
|--------------------------------------------|
|--------------------------------------------|
|--------------------------------------------|
|--------------------------------------------|
|-4-3-4-7777-2-3-5-6666-4-3-4-7777-3333-6666-|
|-2-1-2------0-1-3------2-1-2----------------|


|-----------------------------------------------|
|-----------------------------------------------|
|-----------------------------------------------|
|-----------------------------------------------|
|-4-3-4-7777-4-3-4-6666-4-3-4-7777-101010109999-|
|-2-1-2------2-1-2------2-1-2-------------------|



^2x, then last time
|-------------------------------------------|
|-------------------------------------------|
|-------------------------------------------|
|-------------------------------------------|
|-4-3-4-7777-4-3-4-6666-4-3-4-7777-88886666-|
|-2-1-2------2-1-2------2-1-2---------------|


|-----------------------------------------------|
|-----------------------------------------------|
|-----------------------------------------------|
|-----------------------------------------------|
|-4-3-4-7777-4-3-4-6666-4-3-4-7777-101010109999-|
|-2-1-2------2-1-2------2-1-2-------------------|


Riff 2
|--------------------------------------|
|--------------------------------------|
|--------------------------------------|
|--------------------------------------|
|---------7777-------------------------|
|00000000------7777-7777-9999-10101010-|


Guitar 1
|--------------------------------------|
|--------------------------------------|
|--------------------------------------|
|--------------------------------------|
|---------7777-----------9999-10101010-|
|00000000------7777-7777---------------|
|
|
|
|
|Guitar 2
|--------------------------------------|
|--------------------------------------|
|--------------------------------------|
|---------7777-----------9999-10101010-|
|--------------7777-7777---------------|
|00000000------------------------------|



Riff 1
|--------------------------------------------|
|--------------------------------------------|
|--------------------------------------------|
|--------------------------------------------|
|-4-3-4-7777-2-3-5-6666-4-3-4-7777-3333-6666-|
|-2-1-2------0-1-3------2-1-2----------------|


|-----------------------------------------------|
|-----------------------------------------------|
|-----------------------------------------------|
|-----------------------------------------------|
|-4-3-4-7777-4-3-4-6666-4-3-4-7777-101010109999-|
|-2-1-2------2-1-2------2-1-2-------------------|


|-------------------------------------------|
|-------------------------------------------|
|-------------------------------------------|
|-------------------------------------------|
|-4-3-4-7777-4-3-4-6666-4-3-4-7777-88886666-|
|-2-1-2------2-1-2------2-1-2---------------|


|-----------------------------------------------|
|-----------------------------------------------|
|-----------------------------------------------|
|-----------------------------------------------|
|-4-3-4-7777-4-3-4-6666-4-3-4-7777-101010109999-|
|-2-1-2------2-1-2------2-1-2-------------------|


Riff 2
|--------------------------------------|
|--------------------------------------|
|--------------------------------------|
|--------------------------------------|
|---------7777-------------------------|
|00000000------7777-7777-9999-10101010-|


Guitar 1
|--------------------------------------|
|--------------------------------------|
|--------------------------------------|
|--------------------------------------|
|---------7777-----------9999-10101010-|
|00000000------7777-7777---------------|
|
|
|
|
|Guitar 2
|--------------------------------------|
|--------------------------------------|
|--------------------------------------|
|---------7777-----------9999-10101010-|
|--------------7777-7777---------------|
|00000000------------------------------|


Fill
|-----------------|
|-----------------|
|-----------------|
|-----------------|
|-----------------|
|0000000000000000-|


Riff 3a under solo
|---------------------------------------------------------|
|---------------------------------------------------------|
|---------------------------------------------------------|
|---------------------------------------------------------|
|---------3---2---------2-3-2-3---------3---2-------------|
|-0-0-0-0---0---0-0-0-0-0-1-0-1-0-0-0-0---0---00-11-33-11-|
  . . . .   .   . . . .         . . . .   .   

Riff 3b ( under solo)
|----------------------------------------------------------------|
|----------------------------------------------------------------|
|----------------------------------------------------------------|
|-----------------------------------------------------------2222-|
|---------3---2---------2-3-2-3---------3---2--------------------|
|-0-0-0-0---0---0-0-0-0-0-1-0-1-0-0-0-0---0---0-0-0-0-00-11------|
  . . . .   .   . . . .         . . . .   .   . . . .   

|---------------------------------------------------------|
|---------------------------------------------------------|
|---------------------------------------------------------|
|---------------------------------------------------------|
|---------3---2---------2-3-2-3---------3---2-------------|
|-0-0-0-0---0---0-0-0-0-0-1-0-1-0-0-0-0---0---00-11-33-11-|
  . . . .   .   . . . .         . . . .   .   


Riff 4
|------------------------------------------------------|
|------------------------------------------------------|
|------------------------------------------------------|
|------------------------------------------------------|
|--------------------------------3---2---------2-3-2-3-|
|-55555555-663333-551111-0-0-0-0---0---0-0-0-0-0-1-0-1-|
                         . . . .   .   . . . .

|-----------------------------------------------|
|-----------------------------------------------|
|-----------------------------------------------|
|-----------------------------------------------|
|--------------------------------3---2-----44---|
|-55555555-663333-551111-0-0-0-0---0---1122--11-|
                         . . . .   .

|------------------------------------------------------|
|------------------------------------------------------|
|------------------------------------------------------|
|------------------------------------------------------|
|--------------------------------3---2---------2-3-2-3-|
|-55555555-663333-551111-0-0-0-0---0---0-0-0-0-0-1-0-1-|
                         . . . .   .   . . . .

|-------------|
|-------------|
|-------------|
|-7---5-3---2-|
|-5---3-1---0-|



Riff 3a under solo 2
|---------------------------------------------------------|
|---------------------------------------------------------|
|---------------------------------------------------------|
|---------------------------------------------------------|
|---------3---2---------2-3-2-3---------3---2-------------|
|-0-0-0-0---0---0-0-0-0-0-1-0-1-0-0-0-0---0---00-11-33-11-|
  . . . .   .   . . . .         . . . .   .

Riff 3c also under solo 2 ( last time)
|------------------------------------------------------|
|------------------------------------------------------|
|------------------------------------------------------|
|------------------------------------------------------|
|---------3---2---------2-3-2-3---------3---2-----44---|
|-0-0-0-0---0---0-0-0-0-0-1-0-1-0-0-0-0---0---1122--22-|
  . . . .   .   . . . .         . . . .   .


Riff 3b
|----------------------------------------------------------------|
|----------------------------------------------------------------|
|----------------------------------------------------------------|
|-----------------------------------------------------------2222-|
|---------3---2---------2-3-2-3---------3---2--------------------|
|-0-0-0-0---0---0-0-0-0-0-1-0-1-0-0-0-0---0---0-0-0-0-00-11------|
  . . . .   .   . . . .         . . . .   .   . . . .

|---------------------------------------------------------|
|---------------------------------------------------------|
|---------------------------------------------------------|
|---------------------------------------------------------|
|---------3---2---------2-3-2-3---------3---2-------------|
|-0-0-0-0---0---0-0-0-0-0-1-0-1-0-0-0-0---0---00-11-33-11-|
  . . . .   .   . . . .         . . . .   .

Riff 4
|------------------------------------------------------|
|------------------------------------------------------|
|------------------------------------------------------|
|------------------------------------------------------|
|--------------------------------3---2---------2-3-2-3-|
|-55555555-663333-551111-0-0-0-0---0---0-0-0-0-0-1-0-1-|
                         . . . .   .   . . . .

|-----------------------------------------------|
|-----------------------------------------------|
|-----------------------------------------------|
|-----------------------------------------------|
|--------------------------------3---2-----44---|
|-55555555-663333-551111-0-0-0-0---0---1122--11-|
                         . . . .   .

|------------------------------------------------------|
|------------------------------------------------------|
|------------------------------------------------------|
|------------------------------------------------------|
|--------------------------------3---2---------2-3-2-3-|
|-55555555-663333-551111-0-0-0-0---0---0-0-0-0-0-1-0-1-|
                         . . . .   .   . . . .
             
|-------------|
|-------------|
|-------------|
|-7---5-3---2-|
|-5---3-1---0-|


Riff 5 ( also under solo)
|--------------------------------------------------------------|
|--------------------------------------------------------------|
|--------------------------------------------------------------|
|--------------------------------------------------------------|
|--------------------------------------------------------------|
|-0-0-0-0-1h0-0--0-0-0-1h0-0-0-0-0-1h0-0-0-0-0-1-0-1-2-3-2-3-4-|
  . . . .     .  . . .     . . . .     . . . . . . . . . . . .


Riff 1
|--------------------------------------------|
|--------------------------------------------|
|--------------------------------------------|
|--------------------------------------------|
|-2-3-5-7777-2-3-5-6666-2-3-5-7777-3333-6666-|
|-0-1-3------0-1-3------0-1-3----------------|


|---------------------------------------------|
|---------------------------------------------|
|---------------------------------------------|
|---------------------------------------------|
|-2-3-5-7777-2-3-5-6666-2-3-5-7777-9999101010-|
|-0-1-3------0-1-3------0-1-3-----------------|


^2x, then last time
|-------------------------------------------|
|-------------------------------------------|
|-------------------------------------------|
|-------------------------------------------|
|-2-3-5-7777-2-3-5-6666-2-3-5-7777-88886666-|
|-0-1-3------0-1-3------0-1-3---------------|


|---------------------------------------------|
|---------------------------------------------|
|---------------------------------------------|
|---------------------------------------------|
|-2-3-5-7777-2-3-5-6666-2-3-5-7777-9999101010-|
|-0-1-3------0-1-3------0-1-3-----------------|


Riff 2
|--------------------------------------|
|--------------------------------------|
|--------------------------------------|
|--------------------------------------|
|---------7777-------------------------|
|00000000------7777-7777-9999-10101010-|


Guitar 1
|--------------------------------------|
|--------------------------------------|
|--------------------------------------|
|--------------------------------------|
|---------7777-----------9999-10101010-|
|00000000------7777-7777---------------|
|
|
|
|
|Guitar 2
|--------------------------------------|
|--------------------------------------|
|--------------------------------------|
|---------7777-----------9999-10101010-|
|--------------7777-7777---------------|
|00000000------------------------------|



Ending
|--------------------------------------------|
|--------------------------------------------|
|--------------------------------------------|
|--------------------------------------------|
|-4-3-4-7777-4-3-4-6666-4-3-4-7777-3333-6666-|
|-2-1-2------2-1-2------2-1-2----------------|


|-----------------------------------------------|
|-----------------------------------------------|
|-----------------------------------------------|
|-----------------------------------------------|
|-4-3-4-7777-4-3-4-6666-4-3-4-7777-9999-3-2-3-2-|
|-2-1-2------2-1-2------2-1-2-----------1-0-1-0-|
                                        . . . .


End.





Comments


Popular Malevolent Creation tabs & chords
Carnivorous Misgvings Tabs
Decadence Within Tabs
Eve Of The Apocalypse Tabs
In Cold Blood Tabs
Kill Zone Tabs
Malevolent Creation Tabs
Manic Demise Tabs
Pillage And Burn Tabs
Premature Burial Tabs
Remnants Of Withered Decay Tabs


Song lyrics



↑ Back to top | Tablatures and chords are parodies/interpretations of the original songs. You may use it for private study, scholarship, research or language learning purposes only
© 2014 AZChords.com Contact us | Privacy policy | DMCA | Add/correct tabs | Request tabs | Top 50 tabs