» » »

Malevolent Creation, Preemptive Strike Tabs (ver.1)

Artists:  A B C D E F G H I J K L M N O P Q R S T U V W X Y Z # 

Preemptive Strike Tabs (ver.1)

Malevolent Creation Tabs
 Rating:
4/5 (4 votes)
Preemptive Strike lessons Tabs too difficult? Try these video lessons and learn fast
1
                Band:  Malevolent Creation

Copyright (c)  Nuclear Blast 2004
Version 1.0 - (DATE)



.  - palm mute           /  - slide up to
\  - slide down to       ~  - vibrato
h  - hammer on           b  - Bend
p  - pull off            Suffixes for bend
t  - tap                 f  - full bend    h - half bend
ph - pinched harmonic    q  - quarter bend t - tap bend
*  - see comment         ^  - Hold bend    r release bend
x  - Stuccatto           ~  - vibrato bend
,  - slight palm mute    () - ghost note, sustained note
"  - tremolo note        <> - Trill

Tunning B E A D F# B


Sorry, no solo.  I didn't include the song structure or how many times you play
the riff or anything like that.  It's pretty easy to figure it out if you listen
to the song.



 GTR 1                                          1           2
|-------------------------------------------|-------|---------------|
|-------------------------------------------|-------|---------------|
|-------------------------------------------|-------|---------------|
|-10-9-------12/13\12-----------------------|-------|---------------|
|--8-7-------10/11\10-----8-7----11----8-7--|-8-10--|----3/5--6-----|
|-------0-0-------------0-----10----10------|-6--8--|----1/3--4-----|
        . .               """"""""""""""""

 GTR 2                                          1           2
|-------------------------------------------|-------|---------------|
|-------------------------------------------|-------|---------------|
|-------------------------------------------|-------|---------------|
|-10-9-------12/13\12-----------------------|-------|---------------|
|--8-7-------10/11\10-----------------------|-8-10--|----3/5--6-----|
|-------------------------------------------|-6--8--|----1/3--4-----|


 GTR 1&2                                        1           2
|-------------------------------------------|-------|---------------|
|-------------------------------------------|-------|---------------|
|-------------------------------------------|-------|---------------|
|--10-9------12/13\12-----------------------|-------|---------------|
|---8-7------10/11\10-----8-7----11----8-7--|-8-10--|----3/5--6-----|
|0-------0--------------0-----10----10------|-6--8--|----1/3--4-----|
                          """"""""""""""""

 GTR 1&2                                     1               2
|------------------------------------|---------------|--------------|
|------------------------------------|---------------|--------------|
|------------------------------------|---------------|--------------|
|-------------------10-------7-------|---------------|--------------|
|--------------------8-------5-------|5---------3-5-6|2-3-5-3-5-6-3-|
|000-000-000-000-000--000-000-000-000|3-000-000-1/3-4|0-1/3-1/3-4-1-|
 ... ... ... ... ...  ... ... ... ...   ... ...


 GTR 1&2
|-------------------------------------------------------------------|
|-------------------------------------------------------------------|
|-------------------------------------------------------------------|
|-------------------------------------------------------------------|
|------------------------------------------------77777777777777-----|
|00000000000000000000000000000000000000000000000000000000000000-----|
 ................................................

 GTR 1&2                            1,3                   2             4
|-----------------------|-------------------------|----------------|---------|
|-----------------------|-------------------------|----------------|---------|
|-----------------------|-------------------------|----------------|---------|
|-----------------------|----7----7------------7--|----7--5---9--7-|---------|
|7h9-10------7h9-10-----|7h9-9----9----9p7-9h10-10|7h9-9--7--10--9-|10-9-5-12|
|-------0000--------0000|------00---00------------|-----00-00--00--|---------|
        ....        ....       ..   ..                  .. ..  ..   """""""""
            
Submit corrections

comments powered by Disqus
↑ Back to top | Malevolent Creation Tabs for Preemptive Strike. Lyrics for acoustic guitar and electric guitar. 1 Tablatures and chords are parodies/interpretations of the original songs. You may use it for private study, scholarship, research or language learning purposes only