» » »

Pillage And Burn Tabs (ver.1)

Artists:  A B C D E F G H I J K L M N O P Q R S T U V W X Y Z # 

Pillage And Burn Tabs (ver.1)

Malevolent Creation
Rating:
0/5 (0 votes)

Hard to play? Try these video lessons and learn fast.
                PILLAGE AND BURN
                       As recorded by Malevolent Creation
                     (From the 2002 Album THE WILL TO KILL)





Gtr I (C# F# B E G# C#) - 'Guitar I'
Gtr II (C# F# B E G# C#) - 'Guitar II'


  Q=225
 5/4                          4/4
  Gtrs I, II
  PM----|    PM----|           PM------------|       PM----|
|--------------------------||---------------------------------|
|--------------------------||o--------------------------------|
|--------------------------||---------------------------------|
|---------5----------4-----||---------------------------------|
|---------3----------2--4--||o--------------------------------|
|-2-2-2-2----1-1-1-1----2--||--1-1-1-1-1-1-1-1-4p2p1-1-1-1-1--|


  PM------------|
|-----------------------------|
|-----------------------------|
|-----------------------------|
|-----------------------------|
|-----------------1h2h4-2h3h5-|
|-1-1-1-1-1-1-1-1-------------|


  PM------------|     PM----------------|
|-------------------------------|------------------------|
|-------------------------------|------------------------|
|-------------------------------|------------------------|
|-------------------------------|------------------------|
|-------------------------------|---------1h2h4-2h3h5-5--|
|-1-1-1-1-1-1-1-1-4p2p1-1-1-1-1-|-1-1-1-1-------------3--|


  PM------------|       PM----------------------|
|-------------------------------|-----------------------------|
|-------------------------------|-----------------------------|
|-------------------------------|-----------------------------|
|-------------------------------|-----------------------------|
|-------------------------------|-----------------1h2h4-2h3h5-|
|-1-1-1-1-1-1-1-1-4p2p1-1-1-1-1-|-1-1-1-1-1-1-1-1-------------|


  PM------------|       PM----|      PM----|
|-------------------------------|-------------------||
|-------------------------------|------------------o||
|-------------------------------|-------------------||
|-------------------------------|-5----------4------||
|-------------------------------|-3----------2--4--o||
|-1-1-1-1-1-1-1-1-4p2p1-2-2-2-2-|----1-1-1-1----2---||


        PM--------------------------|       PM--------------------------|
||------------------|-----------------|-----------------|------------------||
||o-----------------|-----------------|-----------------|-----------------o||
||------------------|-----------------|-----------------|------------------||
||------------------|-----------------|-----------------|------------------||
||o-7S8-7-8-7-8-7-8-|-7-8-7-8-7-8-7-8-|-7S8-7-8-7-8-7-8-|-7-8-7-8-7-8-7-8-o||
||--5S6-5-6-5-6-5-6-|-5-6-5-6-5-6-5-6-|-5S6-5-6-5-6-5-6-|-5-6-5-6-5-6-5-6--||


      PM--------------------------|       PM--------------------------|
|-----------------|-----------------|-----------------|------------------|
|-----------------|-----------------|-----------------|------------------|
|-----------------|-----------------|-----------------|------------------|
|-----------------|-----------------|-----------------|------------------|
|-4S3-3-4-3-4-3-4-|-3-4-3-4-3-4-3-4-|-4S3-3-4-3-4-3-4-|-3-4-3-4-3-4-3-4--|
|-2S1-1-2-1-2-1-2-|-1-2-1-2-1-2-1-2-|-2S1-1-2-1-2-1-2-|-1-2-1-2-1-2-1-2--|


        PM--------------------------|       PM--------------------------|
||------------------|-----------------|-----------------|------------------||
||o-----------------|-----------------|-----------------|-----------------o||
||------------------|-----------------|-----------------|------------------||
||------------------|-----------------|-----------------|------------------||
||o-7S8-7-8-7-8-7-8-|-7-8-7-8-7-8-7-8-|-7S8-7-8-7-8-7-8-|-7-8-7-8-7-8-7-8-o||
||--5S6-5-6-5-6-5-6-|-5-6-5-6-5-6-5-6-|-5S6-5-6-5-6-5-6-|-5-6-5-6-5-6-5-6--||


        PM--------------------------|       PM--------------------------|
||------------------|-----------------|-----------------|------------------||
||o-----------------|-----------------|-----------------|-----------------o||
||------------------|-----------------|-----------------|------------------||
||------------------|-----------------|-----------------|------------------||
||o-4S3-3-4-3-4-3-4-|-3-4-3-4-3-4-3-4-|-4S3-3-4-3-4-3-4-|-3-4-3-4-3-4-3-4-o||
||--2S1-1-2-1-2-1-2-|-1-2-1-2-1-2-1-2-|-2S1-1-2-1-2-1-2-|-1-2-1-2-1-2-1-2--||


    PM------------|       PM----------------------|
||--------------------------------|-----------------------------|
||o-------------------------------|-----------------------------|
||--------------------------------|-----------------------------|
||--------------------------------|-----------------------------|
||o-------------------------------|-----------------1h2h4-2h3h5-|
||--1-1-1-1-1-1-1-1-4p2p1-1-1-1-1-|-1-1-1-1-1-1-1-1-------------|


  PM------------|       PM--------------|
|-------------------------------|------------------------|
|-------------------------------|------------------------|
|-------------------------------|------------------------|
|-------------------------------|------------------------|
|-------------------------------|---------1h2h4-2h3h5-5--|
|-1-1-1-1-1-1-1-1-4p2p1-1-1-1-1-|-1-1-1-1-------------3--|


  PM------------|       PM----------------------|
|-------------------------------|-----------------------------|
|-------------------------------|-----------------------------|
|-------------------------------|-----------------------------|
|-------------------------------|-----------------------------|
|-------------------------------|-----------------1h2h4-2h3h5-|
|-1-1-1-1-1-1-1-1-4p2p1-1-1-1-1-|-1-1-1-1-1-1-1-1-------------|


  PM------------|       PM----|      PM----|
|-------------------------------|-------------------||
|-------------------------------|------------------o||
|-------------------------------|-------------------||
|-------------------------------|-5----------4------||
|-------------------------------|-3----------2--4--o||
|-1-1-1-1-1-1-1-1-4p2p1-2-2-2-2-|----1-1-1-1----2---||


 12/8
  Gtr I
  PM----------------------------------------------|
|-------------------------|-------------------------|
|-------------------------|-------------------------|
|-------------------------|-------------------------|
|-------------------------|-------------------------|
|-3-4-3-4-3-2-6-4-3-6-4-3-|-3-4-3-4-3-2-6-4-3-5-4-3-|
|-1-2-1-2-1-0-4-2-1-4-2-1-|-1-2-1-2-1-0-4-2-1-3-2-1-|
|
| Gtr II
| PM------------------------------------------|
|-------------------------|-------------------------|
|-------------------------|-------------------------|
|-------------------------|-------------------------|
|-------------------------|-------------------------|
|-3-----------6-----------|-3-----------6-----5-----|
|-1-----------4-----------|-1-----------4-----3-----|


  Gtrs I, II
  PM----------------------------------------------|
|-------------------------|-------------------------|
|-------------------------|-------------------------|
|-------------------------|-------------------------|
|-------------------------|-------------------------|
|-3-4-3-4-3-2-6-4-3-6-4-3-|-5-2-3-2-3-2-4-1-2-1-2-1-|
|-1-2-1-2-1-0-4-2-1-4-2-1-|-------------------------|


  PM----------------------------------------------|
|-------------------------|-------------------------|
|-------------------------|-------------------------|
|-------------------------|-------------------------|
|-------------------------|-------------------------|
|-3-4-3-4-3-2-6-4-3-6-4-3-|-3-4-3-4-3-2-6-4-3-5-4-3-|
|-1-2-1-2-1-0-4-2-1-4-2-1-|-1-2-1-2-1-0-4-2-1-3-2-1-|


  PM------------------------------------|
|-------------------------|---------------------|
|-------------------------|---------------------|
|-------------------------|---------------------|
|-------------------------|----------------3----|
|-3-4-3-4-3-2-6-4-3-6-4-3-|-6-4-3-5-4-3-2--3----|
|-1-2-1-2-1-0-4-2-1-4-2-1-|-4-2-1-3-2-1-0-------|


  PM----------------------------------------------|
|-------------------------|-------------------------|
|-------------------------|-------------------------|
|-------------------------|-------------------------|
|-------------------------|-------------------------|
|-3-4-3-4-3-2-6-4-3-6-4-3-|-3-4-3-4-3-2-6-4-3-5-4-3-|
|-1-2-1-2-1-0-4-2-1-4-2-1-|-1-2-1-2-1-0-4-2-1-3-2-1-|


  PM----------------------------------------------|
|-------------------------|-------------------------|
|-------------------------|-------------------------|
|-------------------------|-------------------------|
|-------------------------|-------------------------|
|-3-4-3-4-3-2-6-4-3-6-4-3-|-5-2-3-2-3-2-4-1-2-1-2-1-|
|-1-2-1-2-1-0-4-2-1-4-2-1-|-------------------------|


  PM----------------------------------|
|-------------------------|---------------------||
|-------------------------|---------------------||
|-------------------------|---------------------||
|-------------------------|----------------3----||
|-3-4-3-4-3-2-6-4-3-6-4-3-|-1-0-1-0-1-0-2--3----||
|-1-2-1-2-1-0-4-2-1-4-2-1-|-------------0-------||


   4/4
        PM--------------------------|       PM--------------------------|
||------------------|-----------------|-----------------|-------------------||
||o-----------------|-----------------|-----------------|------------------o||
||------------------|-----------------|-----------------|-------------------||
||------------------|-----------------|-----------------|-------------------||
||o-7S8-7-8-7-8-7-8-|-7-8-7-8-7-8-7-8-|-7S8-7-8-7-8-7-8-|-7-8-7-8-7-8-7-8--o||
||--5S6-5-6-5-6-5-6-|-5-6-5-6-5-6-5-6-|-5S6-5-6-5-6-5-6-|-5-6-5-6-5-6-5-6---||


      PM--------------------------|       PM--------------------------|
|-----------------|-----------------|-----------------|------------------|
|-----------------|-----------------|-----------------|------------------|
|-----------------|-----------------|-----------------|------------------|
|-----------------|-----------------|-----------------|------------------|
|-4S3-3-4-3-4-3-4-|-3-4-3-4-3-4-3-4-|-4S3-3-4-3-4-3-4-|-3-4-3-4-3-4-3-4--|
|-2S1-1-2-1-2-1-2-|-1-2-1-2-1-2-1-2-|-2S1-1-2-1-2-1-2-|-1-2-1-2-1-2-1-2--|


        PM--------------------------|       PM--------------------------|
||------------------|-----------------|-----------------|------------------||
||o-----------------|-----------------|-----------------|-----------------o||
||------------------|-----------------|-----------------|------------------||
||------------------|-----------------|-----------------|------------------||
||o-7S8-7-8-7-8-7-8-|-7-8-7-8-7-8-7-8-|-7S8-7-8-7-8-7-8-|-7-8-7-8-7-8-7-8-o||
||--5S6-5-6-5-6-5-6-|-5-6-5-6-5-6-5-6-|-5S6-5-6-5-6-5-6-|-5-6-5-6-5-6-5-6--||


        PM--------------------------|         PM------------------------|
||------------------|-----------------|-----------------|------------------||
||o-----------------|-----------------|-----------------|-----------------o||
||------------------|-----------------|-----------------|------------------||
||------------------|-----------------|-----------------|------------------||
||o-4S3-3-4-3-4-3-4-|-3-4-3-4-3-4-3-4-|-4S3-3-4-3-4-3-4-|-3-4-3-4-3-4-3-4-o||
||--2S1-1-2-1-2-1-2-|-1-2-1-2-1-2-1-2-|-2S1-1-2-1-2-1-2-|-1-2-1-2-1-2-1-2--||


    PM------------|       PM----------------------|
||--------------------------------|-----------------------------|
||o-------------------------------|-----------------------------|
||--------------------------------|-----------------------------|
||--------------------------------|-----------------------------|
||o-------------------------------|-----------------1h2h4-2h3h5-|
||--1-1-1-1-1-1-1-1-4p2p1-1-1-1-1-|-1-1-1-1-1-1-1-1-------------|


  PM------------|       PM--------------|
|-------------------------------|------------------------|
|-------------------------------|------------------------|
|-------------------------------|------------------------|
|-------------------------------|------------------------|
|-------------------------------|---------1h2h4-2h3h5-5--|
|-1-1-1-1-1-1-1-1-4p2p1-1-1-1-1-|-1-1-1-1-------------3--|


  PM------------|       PM----------------------|
|-------------------------------|-----------------------------|
|-------------------------------|-----------------------------|
|-------------------------------|-----------------------------|
|-------------------------------|-----------------------------|
|-------------------------------|-----------------1h2h4-2h3h5-|
|-1-1-1-1-1-1-1-1-4p2p1-1-1-1-1-|-1-1-1-1-1-1-1-1-------------|


                                 5/4
  PM------------|       PM----|      PM----|
|-------------------------------|-----------------------||
|-------------------------------|----------------------o||
|-------------------------------|-----------------------||
|-------------------------------|-5----------4----------||
|-------------------------------|-3----------2--4--3---o||
|-1-1-1-1-1-1-1-1-4p2p1-2-2-2-2-|----1-1-1-1----2--1----||


Tablature Legend
----------------
 h   - hammer-on
 p   - pull-off
 b   - bend
 pb  - pre-bend
 r   - bend release (if no number after the r, then release immediately)
 /  - slide into or out of (from/to "nowhere")
 s   - legato slide
 S   - shift slide
  - natural harmonic
[n]  - artificial harmonic
n(n) - tapped harmonic
 ~   - vibrato
 tr  - trill
 T   - tap
 TP  - trem. picking
 PM  - palm muting
n/  - tremolo bar dip; n = amount to dip
 n  - tremolo bar down
 n/  - tremolo bar up
/n  - tremolo bar inverted dip
 =   - hold bend; also acts as connecting device for hammers/pulls
 <>  - volume swell (louder/softer)
 x   - on rhythm slash represents muted slash
 o   - on rhythm slash represents single note slash

Misc Legend
-----------
 |  - bar
||  - double bar
||o - repeat start
o|| - repeat end
*|  - double bar (ending)
 :  - bar (freetime)
 $  - Segno
 &  - Coda
Tempo markers -  = BPM(8/16=s8/s16),
where s8 = swing 8ths, s16 = swing 16ths
            
Hard to play? Try these video lessons and learn fast. | Correct




comments powered by Disqus
↑ Back to top | Tablatures and chords are parodies/interpretations of the original songs. You may use it for private study, scholarship, research or language learning purposes only