>
 >
Multiple Stab Wounds

Multiple Stab Wounds Guitar Tabs

Malevolent Creation - Multiple Stab Wounds chords, tabs, tablatures, lyrics

Guitar lessons | Add/correct | Request | Top 50 tabs Artists:  A B C D E F G H I J K L M N O P Q R S T U V W X Y Z 0-9

Multiple Stab Wounds Guitar Tabs – Malevolent Creation

CD, Sheet music, Poster

Do you like Multiple Stab Wounds? Share with your friends now
Tabs
MALEVOLENT CREATION
1991 Pavement Music




Here's the tab from a long awaited Malevolent Creation's song.
However, there's some notes that looks and may be right, but
still leave me uncertain, like in Riff E & Riff F, any comments
or suggests are welcome.


Legend:

h        hammer-on             
p        pull-off         
PM |--|  palm mute        
"        tremolo picking (or 32th note)
/        slide up            
\        slide down       
4/4      time signature   
( )      tie note
x        muffled note


Timing: 4/4: ----   =1 beat
       12/8: ------ =1 beat
So one dash is a 16th note


Tune Down 1 whole step  (6:D 5:G 4:C 3:F 2:A 1:D)

 4/4
|-------------------|------------------|-----------------|-----------------|
|-------------------|------------------|-----------------|-----------------|
|*-----------------*|*-----------------|-----------------|-----------------|
|*-----------------*|*-----------------|-----------------|-----------------|
|-------------------|------------------|-----------------|-----------------|
|--4444444444444444-|--3333444433334444|-1111111122222222|-3333444433334444|

  ________________   _______________
 |1.2.            | |3.             |  Riff A
|------------------|-----------------||------------------|-----------------|
|------------------|-----------------||------------------|-----------------|
|-----------------*|-----------------||*-----------------|-----------------|
|-----------------*|-----------------||*-----------------|-----------------|
|-----3/4-5\3-5/6--|-----3/4-5\3-4---||------------------|-----------------|
|-111-1/2-3\1-3/4--|-111-1/2-3\1-2---||--6666555522222222|-2222222222222222|

                         (end Riff A)  Riff B
|-----------------|------------------||------------------|-----------------|
|-----------------|------------------||------------------|-----------------|
|-----------------|-----------------*||*-----------------|-----------------|
|-----------------|-----------------*||*-----------------|-----------------|
|-----------------|------------------||----------4-------|-4-4-----4-4-4-4-|
|-5555444411111111|-1111111111111111-||--666655552---222-|-2-2-222-2-2-2-2-|

                         (end Riff B)
|-----------------|------------------|
|-----------------|------------------|
|-----------------|-----------------*|
|-----------------|-----------------*|
|---------3-------|-3-3-----3-3-3-3--|
|-555544441---111-|-1-1-111-1-1-1-1--|


play Riff A 2 times


 Riff C
|------------------|-----------------|-----------------|-----------------|
|------------------|-----------------|-----------------|-----------------|
|*-----------------|-----------------|-----------------|-----------------|
|*-----------------|-----------------|-----------------|-----------------|
|----------4-------|-3---------------|-----------------|-4-------3-------|
|--666655552-----22|-1---11111---1111|-1---111166665555|-2-----221---1111|

       (end Riff C)  Riff D
|------------------||------------------|-----------------|-----------------|
|------------------||------------------|-----------------|-----------------|
|-----------------*||*-----------------|-----------------|-----------------|
|-----------------*||*-----------------|-----------------|-----------------|
|------------------||------------------|-----------------|-----------------|
|-1---11111---1111-||--6666555522222222|-1111111111111111|-1111111166665555|

                                                           
                         (end Riff D)  
|-----------------|------------------|
|-----------------|------------------|
|-----------------|-----------------*|
|-----------------|-----------------*|
|-----------------|------------------|
|-2222222211111111|-1111111111111111-|


 Riff E (GTR 1)                                   
|-----------------|-----------------|-----------------|-----------------|
|-----------------|-----------------|-----------------|-----------------| 
|-----------------|-----------------|-----------------|---------------6-|
|-----------------|-----------------|-----------------|-------------5---|
|-----------------|---------6666----|-----------------|-----------4-----|
|-1-2-1-2-1-2-1-2-|-1-2-1-2-----6666|-1-2-1-2-1-2-1-2-|-1-2-1-2-4-------|
|                                                                       |
|       (GTR 2)                                                         |
|-----------------|-----------------|-----------------|-----------------|
|-----------------|-----------------|-----------------|-----------------|
|-----------------|-----------------|-----------------|---------------6-|
|-----------------|-----------------|-----------------|-------------5---|
|-----------------|---------6666----|-----------------|-----------4-----|
|-----------------|-------------6666|-1-2-1-2-1-2-1-2-|-1-2-1-2-4-------|

                                                            (end Riff E)
|-----------------|-----------------|-----------------|-----------------|
|-----------------|-----------------|-----------------|-----------------|
|-----------------|-----------------|-----------------|---------6-------|
|-----------------|-----------------|-----------------|-----------5-----|
|-----------------|---------6666----|-----------------|-------------4---|
|-1-2-1-2-1-2-1-2-|-1-2-1-2-----6666|-1-2-1-2-1-2-1-2-|-1-2-1-2-------4-|


play Riff E 2 times (2nd time under solo)

  
 Riff F                  (end Riff F)                        
|-----------------|------------------|-------------------|------------------|
|-----------------|------------------|-------------------|------------------|
|*----------------|-----------------*|*------------------|----------p------*|
|*----------------|-----------------*|*------------------|-666666665-4-----*|
|---------4411----|-----------556666-|--------2233/556666|-------------6\1--|
|-11111111----4411|-2222225566-------|--222222-----------|------------------|


play Riff F 4 times
play Riff C 2 times
play Riff D 2 times


 12/8
|-----------------------------|-------------------------------|
|-----------------------------|-------------------------------|
|*----------------------------|-------------------------------|
|*-------------10/11\10-9/10--|-------------12\11-11-11\10-10-|
|--4---3-------8-/9-\8--7/8---|-4---3-------10\9--9--9-\8--8--|
|--2---1-1-1-1----------------|-2---1-1-1-1-------------------|
  

|----------------------------|--------------------------------|
|----------------------------|--------------------------------|
|----------------------------|----------------------------12-*|
|-------------10/11\10-9/10--|-------------12\11-11-11-10----*|
|-4---3-------8-/9-\8--7/8---|-4---3-------10\9--9--9---------|
|-2---1-1-1-1----------------|-2---1-1-1-1--------------------|


 4/4                                                         play 3 times
|------------------|-----------------|-----------------|------------------|
|---play-this-bar--|-----------------|--play-this-bar--|------------------|
|*-----3-times-----|---------------6-|-----3-times-----|---------6-------*|
|*-----------------|-------------5---|-----------------|-----------5-----*|
|------------------|-----------4-----|-----------------|-------------4----|
|--1-2-1-2-1-2-1-2-|-1-2-1-2-4-------|-1-2-1-2-1-2-1-2-|-1-2-1-2-------4--|


 end with:
|-----------------|------------------|
|-----------------|------------------|
|-----------------|------------------|
|-----------------|-------------5-6--|
|-----------------|-----------4---4--|
|-1-2-1-2-1-2-1-2-|-1-2-1-2-4--------|





Comments


Popular Malevolent Creation tabs & chords
Carnivorous Misgvings Tabs
Day Of Lamentation Tabs
Dead March Tabs
Decadence Within Tabs
Eve Of The Apocalypse Tabs
In Cold Blood Tabs
Memorial Arrangements 1 Tabs
Preemptive Strike Tabs
To Die Is At Hand Tabs
Viral Release Tabs


Song lyrics



↑ Back to top | Tablatures and chords are parodies/interpretations of the original songs. You may use it for private study, scholarship, research or language learning purposes only
© 2014 AZChords.com Contact us | Privacy policy | DMCA | Add/correct tabs | Request tabs | Top 50 tabs