» » »

Malevolent Creation, Memorial Arrangements Tabs (ver.2)

Artists:  A B C D E F G H I J K L M N O P Q R S T U V W X Y Z # 

Memorial Arrangements Tabs (ver.2)

Malevolent Creation Tabs
Rating:
0/5 (0 votes)
Hard to play? Try these video lessons and learn fast.
                /---------------------------------------------------------------------------/
/    The following is the author's own interpretation of the song, to be    /
/                     used for private use and studying                     /
/---------------------------------------------------------------------------/
  
                        Malevolent Creation - Memorial Arrangements
                        From the Album - The Ten Commandments
                        Copyright - Roadrunner Records 1991

                        Version 1.0 - March - 2001
                        Version 2.0 - Dec 7, 2002

            Corrections by: James Williams (Inverted)

For Questions, Comments, Newest Version, or Corrections contact

.  - palm mute            /  - slide up to
\  - slide down to        ~  - vibrato
h  - hammer on            b  - bend
p  - pull off             Suffixes for bend
                          ph - pinch harmonic
                           f - full bend    h - half bend
*  - see comment           r - release      t - tap bend
x  - Rest                  ~ - vibrato bend
.  - slight palm mute     () - ghost note, sustained note

Tuning: "D"G"C"F"A"D"


Riff 1
|-------------------------------------------|
|-------------------------------------------|
|--4---3------------------------------------|
|--2---1------3-----------------------------|
|--2---1------3-----------------------------|
|-------------1-----------------------------|


Riff 2                                                End of Riff 2
|-------------------------------------------| |--------------------|
|-------------------------------------------| |--------------------|
|--4---3------------------------------------| |--4---3-------------|
|--2---1------3------3-3-3x---3-3-3x---3-3--| |--2---1------3------|
|--2---1------3------3-3-1x---3-3-1x---3-3--| |--2---1------3------|
|-------------1------1-1-1x---1-1-1x---1-1--| |-------------1------|
                     . .      . .      . .

Riff 3
|----------------------------------------|
|----------------------------------------|
|-----------------------------4---7------|
|--2------2-2-2-2-2-2-2-2-2-2-2---5------|
|--2------2-2-2-2-2-2-2-2-2-2-2---5------|
|--0------0-0-0-0-0-0-0-0-0-0------------|
          . . . . . . . . . .

Riff 3         Last time only
|----------------------------|
|----------------------------|
|----------------------------|
|--2----2-2-2-2-2-2-2-2-2-2--|
|--2----2-2-2-2-2-2-2-2-2-2--|
|--0----0-0-0-0-0-0-0-0-0-0--|
        . . . . . . . . . .

Riff 4                                 Gtr I
|-------------------------------------------|
|-------------------------------------------|
|--7---4------3-----------------------------|
|--5---2------1-----------------------------|
|--5---2------1-----------------------------|
|-------------------------------------------|


Lead 1                                Gtr II
|-------------------------------------------|
|-------------------------------------------|
|-------------------------------------------|
|--8----------------------------------------|
|------10-----9-----9--7--7--6--6--7--7--6--|
|-------------------------------------------|
|                                           |
|                                           |
|-------------------------------------------|
|-------------------------------------------|
|---------------------------------9--9--8---|
|--8-------------------8--8-11-11-----------|
|------10-----9-----9-----------------------|
|-------------------------------------------|


End of Riff 4                          Gtr I
|-------------------------------------------|
|-------------------------------------------|
|--7---4------3------2----------------------|
|--5---2------1------0----------------------|
|--5---2------1------0----------------------|
|-------------------------------------------|


End of Lead 1                         Gtr II
|-------------------------------------------|
|-------------------------------------------|
|-------------------------------------------|
|--8----------------------------------------|
|------10-----9------8----------------------|
|-------------------------------------------|
            

comments powered by Disqus
↑ Back to top | Malevolent Creation Tabs for Memorial Arrangements. Lyrics for acoustic guitar and electric guitar. Tablatures and chords are parodies/interpretations of the original songs. You may use it for private study, scholarship, research or language learning purposes only