» » »

Malevolent Creation, Malevolent Creation Tabs (ver.1)

Artists:  A B C D E F G H I J K L M N O P Q R S T U V W X Y Z # 

Malevolent Creation Tabs (ver.1)

Malevolent Creation Tabs
 Rating:
4/5 (4 votes)
Malevolent Creation lessons Tabs too difficult? Try these video lessons and learn fast
                                          From the Album - THE TEN COMMANDMENTS
                           Copyright - ROADRUNNER RECORDS 1991
                              Version 1.0 December 12, 2002



For Questions, Comments, Newest Version, or Corrections contact


.  - palm mute           /  - slide up to
\  - slide down to       ~  - vibrato
h  - hammer on           b  - bend
p  - pull off            Suffixes for bend ^
ph - pinched harmonic     f - full bend    h - half bend
*  - see comment          r - release      t - tap bend
X  - Stuccatto            ~ - vibrato bend q - quarter bend
,  - slight palm mute    () - ghost note, sustained note
"  - Tromolo note        <> - Trill
t\ - Tap slide

Tuning: "D"G"C"F"A"D"


Riff 1
|--------------------------------------------------------------------|
|--------------------------------------------------------------------|
|--------------------------------------------------------------------|
|---------------------------------------------------9\10-------10----|
|---------------------------------------------------7\-8----10--8----|
|--0-0-0-0-0-0-0-0-0-0-0-0-0-0-0-0-0-0-0-0-0-0-0-0-------0--8--------|
|  . . . . . . . . . . . . . . . . . . . . . . . .       .           |
|                                                                    |
|--------------------------------------------------------------------|
|--------------------------------------------------------------------|
|--------------------------------------------------------------------|
|----------------------------------------------------------------10--|
|-----------------------------------------------------------------8--|
|--0-0-0-0-0-0-0-0-0-0-0-0-0-0-0-0-12-11-10-0-11-10-9-0-10-9-8-0-----|
   . . . . . . . . . . . . . . . .  .  .  . .  .  . . .  . . . .

Riff 2
|----------------------------------|---------------------------------|
|----------------------------------|---------------------------------|
|----------------------------------|---------------------------------|
|--9-------9-------9---------------|-9-------9-------9-----------10--|
|--7--7777-7--7777-7--7777---------|-7--7777-7--7777-7--7777------8--|
|--------------------------999-999-|-------------------------999-----|
|     ....    ....    .... ... ...      ....    ....    .... ...     |
|                                                                    |
|----------------------------------|---------------------------------|
|----------------------------------|---------------------------------|
|----------------------------------|---------------------------------|
|--9-------9-------9---------------|-9-------9-------9-----------10--|
|--7--7777-7--7777-7--7777---------|-7--7777-7--7777-7--7777------8--|
|--------------------------999-999-|-------------------------999--8--|
      ....    ....    .... ... ...      ....    ....    .... ...

Riff 3
|-------------------------------|
|-------------------------------|
|-------------------------------|
|-------------------------------|
|----9\10----8\9----7\8----5\6--|
|--0-7\-8--0-6\7--0-5\6--0-3\4--|
   .       .      .      .

Fill 1
|-------------------------------------|
|-------------------------------------|
|-------------------------------------|
|-------------------------------10----|
|--------------------------------8----|
|--7777777799996666777777779999--8----|
   ............................

Riff 4
|-----------------------------------|
|-----------------------------------|
|-----------------------------------|
|-----------------------------------|
|-----------------------------------|
|--0-0-000-0-0-000-0-0-000-0-0-000--|
|  . . ... . . ... . . ... . . ...  |
|                                   |
|-----------------------------------|
|-----------------------------------|
|-----------------------------------|
|--9-------8-------7----------------|
|--7-------6-------5----------------|
|--7--0000-6--0000-5--000000000000--|
      ....    ....    ............

Riff 5
|---------------------------------------------|
|---------------------------------------------|
|--------------------9------------------9-----|
|---------12---------7---------12-------7-12--|
|--999999-10--999999----999999-10--9999---10--|
|---------------------------------------------|
   ......     ......    ......     ....

Fill 2
|----------------------------|
|----------------------------|
|----------------------------|
|----------------------------|
|----------------------------|
|--000000000000000000000000--|
   ........................

Riff 6
|---------------------------------------------|
|---------------------------------------------|
|---------------------------------------------|
|-------------------10------------------10----|
|---------10---------8---------10--------8-9--|
|--777777--8--777777----777777--8--7777----7--|
   ......     ......    ......     ....

Fill 3
|------------|
|------------|
|------------|
|--11--------|
|---9--------|
|---9--------|


Fill 4
|------------------------------|
|------------------------------|
|--6---------------------------|
|--4------7------5------3------|
|--4------5------3------1------|
|---------5------3------1------|
            
Submit corrections

comments powered by Disqus
↑ Back to top | Malevolent Creation Tabs for Malevolent Creation. Lyrics for acoustic guitar and electric guitar. Tablatures and chords are parodies/interpretations of the original songs. You may use it for private study, scholarship, research or language learning purposes only