» » »

Malevolent Creation, Kill Zone Tabs (ver.1)

Artists:  A B C D E F G H I J K L M N O P Q R S T U V W X Y Z # 

Kill Zone Tabs (ver.1)

Malevolent Creation Tabs
 Rating:
4/5 (4 votes)
Kill Zone lessons Tabs too difficult? Try these video lessons and learn fast
                

/ The following is the author's own interpretation of the song, to be used -
/ for studying or private use only, removal of any part of this ten line   -
/ place inwhich the tab was downloaded. Publishing as well as printing of  -
/ owner of the song. Failure to apply to these laws result will in legal   -
/ action from the appropriate parties.                                     -





Here it is finally. Note that the intro riff is *highly* suspect and this is basically an educated guess on what the riff is since there is always a f**king drum fill over the riff every time that it is played. The rest is good as far as I know. Comments, corrections and general complaints to the address above. :P

Version 1.0 - October 2001

Rhythm guitar transcribed on Bass 
Tuning (Low to High) - C# F# B E


Intro     
|---------------------------|
|-------5\4---------5\4-----|
|-5\4---3\2---5\4---3\2-5-4-|
|-3\2-0-----0-3\2-0-----3-2-|
      .     .     .     . .


A1	                   			               Guitar 1
|---------------------------------------------------------------------|
|---------------------------------------------------------------------|
|-10"---------------------14"-10"-12"-------------9"----------12"-9"--|
|---------------------------------------------------------------------|
|				                               Guitar 2
|---------------------------------------------------------------------|
|---------------------------------------------------------------------|
|---------------------------------------------------------------------|
|-12"-----------------------------10"---------------------------------|



A2	                   			            Guitar 1
|------------------------------------------------------------------|
|------------------------------------------------------------------|
|-10"---------------------14"-10"-9"-------------------------------|
|-------------------------------------------------9"---------------|
|				                            Guitar 2
|------------------------------------------------------------------|
|------------------------------------------------------------------|
|------------------------------------------------------------------|
|-12"-----------------------------10"-------------9"---------------|


A3	                   			               Guitar 1
|---------------------------------------------------------------------|
|---------------------------------------------------------------------|
|-10"---------------------14"-10"-------------------------------------|
|---------------------------------14"---------------------------------|
|				                               Guitar 2
|---------------------------------------------------------------------|
|---------------------------------------------------------------------|
|---------------------------------------------------------------------|
|-12"-----------------------------14"-------------10"-----------------|


A4	                   		       Guitar 1
|-----------------------------------------------------|
|-----------------------------------------------------|
|-10"---------------------9"--------------------------|
|-----------------------------12"-10"-12"-------------|
|	  			               Guitar 2
|-----------------------------------------------------|
|-----------------------------------------------------|
|-----------------------------------------------------|
|-8"----------------------7"--5"--3"--0"--------------|



Repeat Intro

    
B     [1,3]                [2]                   [4] 
|------------------|------------------|----------------------|
|------------------|------------------|---------88887777-----|
|-77778787778710777|-7777878777223355-|-77778787--------10p8-|
|------------------|------------------|----------------------|
               


Repeat B x 3


C1							    Guitar 1				
|------------------------------------------------------------------|
|-12"---------------------13"-12"-----------------11"--------------|
|------------------------------------------------------------------|
|------------------------------------------------------------------|
|      							    Guitar 2
|------------------------------------------------------------------|
|------------------------------------------------------------------|
|-10"-----------------------------9"----------------------8"-------|
|------------------------------------------------------------------|


Repeat C1


C2							    Guitar 1			
|------------------------------------------------------------------|
|------------------------------------------------------------------|
|-5555555555555555555555556666555555555555555555554444444444444444-|
|------------------------------------------------------------------|
| 						            Guitar 2
|------------------------------------------------------------------|
|------------------------------------------------------------------|
|------------------------------------------------------------------|
|-3333333333333333333333333333333322222222222222222222222211111111-|


Repeat C2 x 3


D (guitar 1 only)
|---------------------------------|
|---------------------------------|
|-----3-----3---------3-------4-3-|
|-0-1---0-1---0-0-0-1---0-0-1-----|
  . . . . . . . . . . . . . . . . 

Repeat D (w/D')

D'
|---------------------------------|
|-----1-----1---------1-------2-1-|
|---------------------------------|
|-0-1---0-1---0-0-0-1---0-0-1-----|
  . . . . . . . . . . . . . . . . 


Repeat D x 2 (both guitars)
Repeat D x 2 (w/D')


E     [1-7]              [8]
|-----------------|-----------------|
|-----------------|-----------------|
|-5-4-3-4-3-2-3-2-|-6-7-5-6-4-5-3-4-|
|-3-2-1-2-1-0-1-0-|-4-5-3-4-2-3-1-2-|
  . . . . . . . .   . . . . . . . .


Repeat D x 2 (both guitars)
Repeat D x 2 (w/D')
Repeat E


 Pause
|-----|---|
|-----|---|
|-----|-3-|
|-----|-1-|
        .    


Repeat A1+A2+A3+A4, Intro

 
Fill 3
|-----------------------|
|-----------------------|
|-2---(2)---(2)---
            
Submit corrections

comments powered by Disqus
↑ Back to top | Malevolent Creation Tabs for Kill Zone. Lyrics for acoustic guitar and electric guitar. Tablatures and chords are parodies/interpretations of the original songs. You may use it for private study, scholarship, research or language learning purposes only