» » »

Impaled Existence Tabs (ver.1)

Artists:  A B C D E F G H I J K L M N O P Q R S T U V W X Y Z # 

Impaled Existence Tabs (ver.1)

Malevolent Creation
Rating:
0/5 (0 votes)

Hard to play? Try these video lessons and learn fast.
                

Tuning: D (one whole step down)
Copy: First

Notation Key
~: vibrato
^: bend
.: palm mute
r: release
t: trill
p: pull-off
h: hammer-on
x: ghost note
/: slide up
\: slide down

doesn't like Malevolent Creation should be shot so their genes can't be carried on to the
next generation.  I think the tab looks great, there are bound to be a few minor mistakes
though, and if you notice any, I'd appreciate it if you would show me so I can fix it. By
the way, I'd also like to know if those little "TIME" things help you.  It gives me more
work to do to put them in there, so if nobody's using them, I'm just going to take them
out.  E-mail me to let me know if you like them or not.  Later.

=========================================================================================

Riff 1A x2 (These notes are only spaced so you can read them easier)
e|------------------------------------------------------|
B|------------------------------------------------------|
G|------------------------------------------------------|
D|------------------------------------------------------|
A|--10-9-8--------9-7-6-------8-6-5--------------5-6-8--|
E|---------10-9-8-------9-7-6-------8-6-5--5-6-8--------|

Riff 1B x6
    Guitar 1
  e|------------------------------------------------------|
  B|------------------------------------------------------|
  G|------------------------------------------------------|
  D|------------------------------------------------------|
  A|--10-9-8--------9-7-6-------8-6-5--------------5-6-8--|
  E|---------10-9-8-------9-7-6-------8-6-5--5-6-8--------|

    Guitar 2
  e|--------------------------------------------------------------|
  B|--------------------------------------------------------------|
  G|--12-10-9---------11-9-8--------10-8-7----------------7-8-10--|
  D|----------12-10-9--------11-9-8--------10-8-7--7-8-10---------|
  A|--------------------------------------------------------------|
  E|--------------------------------------------------------------|

Fill 1 x1
e|-----------|
B|-----------|
G|-----------|
D|-----------|
A|--9-8-6-4--|
E|--7-6-4-2--|

            TIME- 0:18

Riff 2 x1
e|------------------------------|-------------------------------------|
B|------------------------------|-------------------------------------|
G|------------------------------|-------------------------------------|
D|------------------------------|-------------------------------------|
A|-----------------------2-1----|-----------------------2-1----4-3----|
E|--1-2-2--1-2-2--1-2-2------2--|--1-2-2--1-2-2--1-2-2------2------4--|

e|------------------------------|-------------------------------------|
B|------------------------------|-------------------------------------|
G|------------------------------|-------------------------------------|
D|------------------------------|-------------------------------------|
A|-----------------------2-1----|-----------------------5-4----4-3----|
E|--1-2-2--1-2-2--1-2-2------2--|--1-2-2--1-2-2--1-2-2------5------4--|

e|------------------------------|-------------------------------------|
B|------------------------------|-------------------------------------|
G|------------------------------|-------------------------------------|
D|------------------------------|-------------------------------------|
A|-----------------------2-1----|-----------------------2-1----4-3----|
E|--1-2-2--1-2-2--1-2-2------2--|--1-2-2--1-2-2--1-2-2------2------4--|

e|------------------------------|--------------------------------------|
B|------------------------------|--------------------------------------|
G|------------------------------|--------------------------------------|
D|------------------------------|-----------------------6-5-----4---3--|
A|-----------------------2-1----|-----------------------4-3-6-5-2-5-1--|
E|--1-2-2--1-2-2--1-2-2------2--|--1-2-2--1-2-2--1-2-2------4-3---3----|

            TIME- 0:32

Riff 3A x3
e|---------------------------------|---------------------------------|
B|---------------------------------|---------------------------------|
G|---------------------------------|---------------------------------|
D|---------------------------------|---------------------------------|
A|----------------433-----433------|--------------------456-433------|
E|--111111-2-1111-----433-----433--|--111111-2-1111-234---------433--|

Riff 3B x2
e|---------------------------------|---------------------------------|
B|---------------------------------|---------------------------------|
G|----------------655-----655------|--------------------678-655------|
D|--333333-4-3333-----655-----655--|--333333-4-3333-456---------655--|
A|---------------------------------|---------------------------------|
E|---------------------------------|---------------------------------|

            TIME- 0:52

Riff 4 x4
e|------------------------------|------------------------------|
B|------------------------------|------------------------------|
G|------------------------------|------------------------------|
D|--3-4--------321-210-432-321--|--3-4--------432-321-543-432--|
A|--3-4-------------------------|--3-4-------------------------|
E|--1-2-000000------------------|--1-2-000000------------------|

Fill 2 x1
e|-----|-----|
B|-----|-----|
G|-----|-----|
D|--6--|--4--|
A|--6--|--4--|
E|--4--|--2--|

            TIME- 1:11

Riff 5A x1
e|---------------------------------------------------------|
B|---------------------------------------------------------|
G|---------------------------------------------------------|
D|---------444444--------555555--------666666555555444444--|
A|---------------------------------------------------------|
E|--111111--------111111--------111111---------------------|
    ......        ......        ......

  (two guitars arranged for one on this stave)
e|---------------------------------------------------------|
B|---------------------------------------------------------|
G|---------------------------------------------------------|
D|---------555555--------444444--------333333666666555555--|
A|---------777777--------666666--------555555888888777777--|
E|--000000--------000000--------000000---------------------|
    ......        ......        ......

e|---------------------------------------------------------|
B|---------------------------------------------------------|
G|---------------------------------------------------------|
D|---------444444--------555555--------666666555555444444--|
A|---------------------------------------------------------|
E|--111111--------111111--------111111---------------------|
    ......        ......        ......

e|---------------------------------------------------------|
B|---------------------------------------------------------|
G|---------------------------------------------------------|
D|---------------------------------------------------------|
A|---------777777--------666666--------555555888888777777--|
E|--000000--------000000--------000000---------------------|
    ......        ......        ......

Riff 6A x2
e|--------------------------------------------------------|
B|--------------------------------------------------------|
G|--------------------------------------------------------|
D|-------------------------------------------------5-4-3--|
A|--------------------------------------------------------|
E|--000000-000000-000000-000000-000000-000000-4321--------|
    ...... ...... ...... ...... ...... ......

e|------------------------------------------------------------|
B|------------------------------------------------------------|
G|------------------------------------------------------------|
D|-----------------------------------------------4---3--------|
A|---------777777--------777777--------777777--5-2-5-1-3-4-5--|
E|--000000--------000000--------000000---------3---3---1-2-3--|
    ......        ......        ......

            TIME- 1:52

Riff 7 x5
e|-------------------|-------------------|-------------------|-------------------|
B|-------------------|-------------------|-------------------|-------------------|
G|-------------------|-------------------|-------------------|-------------------|
D|-------------------|-------------------|-------------------|-------------------|
A|-------------------|-------------------|-------------------|-------------------|
E|--321-0-0-0-0-0-0--|--321-0-0-0-0-0-0--|--321-0-0-0-0-0-0--|--321-321-321-321--|

            TIME- 2:17

Riff 8A x3
e|-----------|-----------|-----------|---------|
B|-----------|-----------|-----------|---------|
G|-----------|-----------|-----------|---------|
D|-----------|-----------|-----------|------5--|
A|-----------|-----------|-----------|------5--|
E|--321-0-1--|--421-0-1--|--321-0-1--|--321-3--|

e|-----------|-----------|-----------|--------|
B|-----------|-----------|-----------|--------|
G|-----------|-----------|-----------|--------|
D|-----------|-----------|-----------|--4--5--|
A|-----------|-----------|-----------|--4--5--|
E|--321-0-1--|--421-0-1--|--321-0-1--|--2--3--|

Riff 8B x1
e|-----------|-----------|-----------|---------|
B|-----------|-----------|-----------|---------|
G|-----------|-----------|-----------|---------|
D|-----------|-----------|-----------|------5--|
A|-----------|-----------|-----------|------5--|
E|--321-0-1--|--421-0-1--|--321-0-1--|--321-3--|

e|-----------|-----------|-----------|--------|-----|
B|-----------|-----------|-----------|--------|-----|
G|-----------|-----------|-----------|--------|-----|
D|-----------|-----------|-----------|--------|-----|
A|-----------|-----------|-----------|--5--5--|--4--|
E|--321-0-1--|--421-0-1--|--321-0-1--|--3--3--|--2--|

            TIME- 2:38

Riff 5B x2
e|---------------------------------------------------------|
B|---------------------------------------------------------|
G|---------------------------------------------------------|
D|---------444444--------555555--------666666555555444444--|
A|---------------------------------------------------------|
E|--111111--------111111--------111111---------------------|
    ......        ......        ......

e|---------------------------------------------------------|
B|---------------------------------------------------------|
G|---------------------------------------------------------|
D|---------------------------------------------------------|
A|---------777777--------666666--------555555888888777777--|
E|--000000--------000000--------000000---------------------|
    ......        ......        ......

            TIME- 2:59

Riff 6A x1
e|--------------------------------------------------------|
B|--------------------------------------------------------|
G|--------------------------------------------------------|
D|-------------------------------------------------5-4-3--|
A|---------------------------------------------Ä×Ë„Þ
            
Hard to play? Try these video lessons and learn fast. | Correct




comments powered by Disqus
↑ Back to top | Tablatures and chords are parodies/interpretations of the original songs. You may use it for private study, scholarship, research or language learning purposes only