>
 >
Eve Of The Apocalypse

Eve Of The Apocalypse Guitar Tabs

Malevolent Creation - Eve Of The Apocalypse chords, tabs, tablatures, lyrics

Guitar lessons | Add/correct | Request | Top 50 tabs Artists:  A B C D E F G H I J K L M N O P Q R S T U V W X Y Z 0-9

Eve Of The Apocalypse Guitar Tabs – Malevolent Creation

CD, Sheet music, Poster

Do you like Eve Of The Apocalypse? Share with your friends now
Tabs
Version 1.0 - March 2001

Rhythm guitar transcribed on bass
Tuning (Low - High): D G C F 

Note: C1 & C2 are slightly dodgy and I cannot work out the fill in F/F' :(

Synth intro (0:00-1:15)

A1                    Play 4 Times
|----------------------------------|------------------------|
|----------------------------------|------------------------|
|-----55554444---------------------|-----55554444-5-8-5-7-3-|
|-3333--------33336666333355551111-|-3333---------3-6-3-5-1-|

Pause

B1
|--------------------|-----------8877---|
|-------7766---------|-------7766----88-|
|---7766----8899-----|---7766-----------|
|-66------------1010-|-66---------------|
 
B2
|--------------------|------------------|
|-------7766---------|------------------|
|---7766----8899-----|---8877-5-8-5-7-3-|
|-66------------1010-|-66-----3-6-3-5-1-|


C1     
|----------------|----------------------|
|----------------|----------------------|
|----------------|------------4-7-4-5-8-|
|-0-111122221111-|-0-11112222-2-5-2-3-6-|
  . ............   . ........

C2     
|----------------|----------------------|
|----------------|----------------------|
|----------------|------------5-8-5-7-3-|
|-0-111122221111-|-0-11112222-3-6-3-5-1-|
  . ..........  

Repeat C1


Fill 1                                                Left Channel
|----------------------------------------------------------------|
|----------------------------------------------------------------|
|-------------------------------------------------------2-2--2-2-|
|-0-11-1-1-3-11-1-1-0-11-1-1-3-11-1-1-0-11-1-1-3-11-1-1-0-0--0-0-|
| . .. . . . .. . . . .. . . . .. . . . .. . . . .. . . . .  . .
|
|                   Right Channel
|----------------------------------------------------------------|
|----------------------------------------------------------------|
|-3--------3--------3--------3--------3--------3--------2-2--2-2-|
|-1--------1--------1--------1--------1--------1--------0-0--0-0-|
  .        .        .        .        .        .        . .  . .
  


D              [1,3]                [2]   [4]
|---------------------------------------------------------|-----|-----|
|---------------------------------------------------------|-----|-5-8-|
|---------5---------------5---------------5---------------|-5-3-|-3-6-|
|-1-0-0-0-3-0-0-0-1-0-0-0-3-0-0-0-1-0-0-0-3-0-0-0-1-0-0-0-|-3-1-|-3---|
  . . . . . . . . . . . . . . . . . . . . . . . . . . . .   .    


Repeat D x 2, A1 x 2

A2
|---------------------------------------------------|
|---------------------------------------------------|
|-----55554444-----2-2-2-2-----55554444-----3-3-3-3-|
|-3333--------3333-0-0-0-0-3333--------3333-1-1-1-1-|
                   . . . .                  . . . .


E   Left Channel
|------------------------------------------------------------------|
|-------------------------------------------------------------7tr8-|
|-3-------3-------3---------------3-------3-------5----------------|
|-1-0-0-0-1-0-0-0-1-0-0-0-1h4p1h4-1-0-0-0-1-0-0-0------------------|
|   . . .   . . .   . . .           . . .   . . . . . . . . . . .
| Right Channel
|-----------------------------------------------------------------|
|-----------------------------------------------------------------|
|-3-------3-------3---------------3-------3-----------------------|
|-1-------1-------1-------1h4p1h4-1-------1-------?-?-?-?-?-?-?-?-|
                                                  . . . . . . . .


Repeat E x  w/E'


 
Repeat B1+B2

F Play 4 times
|-----------------------------------------------------------|
|-----------------------------------------------------------|
|-3/5\3/5-3-5------------------3/5\3/5-3-5------------------|
|-1/3\1/3-1-3-4444333366663333-1/3\1/3-1-3-7777444466663333-|
              ................             ................ 


Repeat F x 4 w/F'                                    

F'
|-----------------------------------------------------------|
|-----------------------------------------------------------|
|-3/5\3/5-3-5-6666555588885555-3/5\3/5-3-5-9999666688885555-|
|-1/3\1/3-1-3------------------1/3\1/3-1-3------------------|
              ................             ................


Repeat A1 x 2, A2 x 2, F x 2 (2nd time with F')

Outro
|----------------------------------------------------------|
|----------------------------------------------------------|
|-3-------3-------3---------------3-------3-------2-2--2-2-|
|-1-0-0-0-1-0-0-0-1-0-0-0-1h4p1h4-1-0-0-0-1-0-0-0-0-0--0-0-|
|   . . .   . . .   . . .           . . .   . . . . .  . .
|
|----------------------------------------------------------|
|----------------------------------------------------------|
|-3-------3-------3-------3/6\3/6-3-------3-------2-2--2-2-|
|-1-------1-------1-------1/4\1/4-1-------1-------0-0--0-0-|
                                                  . .  . .

--------
The End!





Comments


Popular Malevolent Creation tabs & chords
Dead March Tabs
Decadence Within Tabs
Kill Zone Tabs
Leech Tabs
Memorial Arrangements Tabs
Memorial Arrangements 1 Tabs
Premature Burial Tabs
Remnants Of Withered Decay Tabs
The Will To Kill Tabs
To Die Is At Hand Tabs


Song lyrics



↑ Back to top | Tablatures and chords are parodies/interpretations of the original songs. You may use it for private study, scholarship, research or language learning purposes only
© 2014 AZChords.com Contact us | Privacy policy | DMCA | Add/correct tabs | Request tabs | Top 50 tabs