>
 >
Decadence Within

Decadence Within Guitar Tabs

Malevolent Creation - Decadence Within chords, tabs, tablatures, lyrics

Guitar lessons | Add/correct | Request | Top 50 tabs Artists:  A B C D E F G H I J K L M N O P Q R S T U V W X Y Z 0-9

Decadence Within Guitar Tabs – Malevolent Creation

CD, Sheet music, Poster

Do you like Decadence Within? Share with your friends now
Tabs
MALEVOLENT CREATION
1991 Pavement Music




Legend:

h        hammer-on             
p        pull-off         
PM |--|  palm mute        
"        tremolo picking (or 32th note)
/        slide up            
\        slide down       
4/4      time signature   
( )      tie note
x        muffled note


Timing: 4/4: ----   = 1 beat
       12/8: ------ = 1 beat
             |_3_|  = triplet   

Tune Down 1 whole step  (6:D 5:G 4:C 3:F 2:A 1:D)

                                       ________________   ________________
  Gtr 1                               |1.2.3.          | |4.              |
|-----------------|------------------|------------------|------------------|
|-----------------|------------------|------------------|------------------|
|-----------------|*-----------------|-----------------*|------------------|
|-5---4---8---7---|*-----------------|-7777----6666----*|-7777----6666-----|
|-5---4---8---7---|------------------|-----8888----7\---|-----8888----7\---|
|-3---2---6---5---|--1-0-1-0-1-0-1---|------------------|------------------|
|                                                                          |
| Gtr 2                                                                    |
|-----------------|------------------|------------------|------------------|
|-----------------|------------------|------------------|-*----------------|
|-----------------|*-----------------|-----------------*|-1414----1313-----|
|-5---4---8---7---|*-----------------|-----------------*|-----1515----14\--|
|-5---4---8---7---|------------------|------------------|------------------|
|-3---2---6---5---|--1-0-1-0-1-0-1---|------------------|------------------|
                                                          *play each note twice

 Riff A1  w/Riff A       (end Riff A1)
 Gtr 2                    play 4 times
|------------------|------------------|-----------------|-----------------|
|------------------|------------------|-----------------|-----------------|
|*-----------------|-1414----1313----*|-----------------|----Drum-Fill----|
|*-----------------|-----1515----14\-*|-----------------|-----------------|
|------------------|------------------|-------------3---|-----------------|
|--1-0-1-0-1-0-1---|------------------|-1-0-1-0-1-0-1---|-----------------|

 Riff B
|------------------|--------|--------|-----------------|-----------------|
|------------------|--------|--------|-----------------|-----------------|
|*-----------------|---*/---|---*/---|-----------------|-----------------|
|*-----------------|---/*---|---/*---|---------3-/-4---|-----------------|
|------------------|--------|--------|---------1-/-2---|-----------------|
|--2-1-2-1-2-1-2-1-|--------|--------|-2-1-2-1---------|-2-1-2-1-2-1-2-1-|

                                  (end Riff B)
|-----------------|--------|------------------|-----------------|--------|
|-----------------|--------|------------------|-----------------|--------|
|-----------------|---*/---|-----------------*|-----------------|---*/---|
|-----------------|---/*---|-4---3---7---6---*|-----------------|---/*---|
|-----------------|--------|-2---1---5---4----|-----------------|--------|
|-2-1-2-1-2-1-2-1-|--------|------------------|-100-100-100-100-|--------|

  Gtr 1 
|-----------------|-----------------|
|-----------------|-----------------|
|-----------------|-----------------|
|-----------------|-----------------|
|-----------------|-3---2---4---3---|
|-100-100-100-100-|-1---0---2---1---|
|                                   |
| gtr 2                             |
|-----------------|-----------------|
|-----------------|-----------------|
|-----------------|-----------------|
|-----------------|-----------------|
|-----------------|---------4---3---|
|-100-100-100-100-|-100-100-2---1---|

  Both Gtrs
|-----------------|--------|--------|-----------------|--play-Riff-B-4-times--|
|-----------------|--------|--------|-----------------|-----------------------|
|-----------------|---*/---|---*/---|-----------------|*---------------------*|
|-----------------|---/*---|---/*---|-----------------|*---------------------*|
|-----------------|--------|--------|---------4---3---|-----------------------|
|-100-100-100-100-|--------|--------|-100-100-2---1---|-----------------------|

                                       ___________________   ________________
                                      |1.                 | |2.              |
|------------------|--------|--------|---------------------|------------------|
|------------------|--------|--------|---------------------|------------------|
|*-----------------|---*/---|---*/---|--------------------*|-----------------*|
|*-----------------|---/*---|---/*---|-----10\9-----12\10-*|---------6\5-7\--*|
|--7\6-6-6-6-6-6-6-|--------|--------|-555-8-\7-555-10\8---|-6-6-6-6-4\3-5\---|
|--5\4-4-4-4-4-4-4-|--------|--------|---------------------|-4-4-4-4----------|

  __________________                                        ________________
 |3.                |                                      |1.              |
|--------------------|------------------|--------|--------|------------------|
|--------------------|------------------|--------|--------|------------------|
|-------------------*|*-----------------|---*/---|---*/---|------------h----*|
|-----11\9---10/11\-*|*-----------------|---/*---|---/*---|------p----5-6---*|
|-----9-\7---8-/9-\--|------------------|--------|--------|---5-6-5-3--------|
|-9999-----9---------|--1111222-222-222-|--------|--------|-7-------------3--|

  _______________                                        ________________
 |2.             |                                      |1.              |
|-----------------|------------------|--------|--------|------------------|
|-----------------|------------------|--------|--------|------------------|
|------------h----|*-----------------|---*/---|---*/---|------------h----*|
|------p----4-5---|*-----------------|---/*---|---/*---|------p----4-5~--*|
|---5-7-6-3-------|--7\6-6-6-6-6-6-6-|--------|--------|---5-7-6-3--------|
|-7---------------|--5\4-4-4-4-4-4-4-|--------|--------|-7----------------|

                       6/4                       4/4
|---------------------|-------------------------|-----------------|-----------------|
|---------------------|-------------------------|-----------------|-----------------|
|---------------------|-------------------------|-----------------|-----------------|
|-------------6\5-7\--|-------------------------|-----------------|-----------------|
|-6-6-6-6-6-6-4\3-5\--|-3-3-----3---------------|-2-2-2-2-2-2-----|-3-3-----3-------|
|-4-4-4-4-4-4---------|-1-1-----1---------------|-0-0-0-0-0-0-000-|-1-1-----1-------|
  |_3_| |_3_|

|-pretty-close-to-this-------|------------------|-----------------|-----------------|
|----------------------------|------------------|-----------------|-----------------|
|-10-9-7---------------------|*-----------------|-----------------|-----------------|
|--|_3_|-11-10-8--------11---|*-----------------|-----------------|-----------------|
|--------|__3__|-10-9-7-9----|--3-------3-------|-----------------|-3-------3-------|
|-----------------|_3_|------|--1---0-0-1---0-0-|-0-0-0-0-0-0-000-|-1---0-0-1---0-0-|

  Gtr 1
|------------------------|------------------|-----------------|-----------------|
|------------------------|------------------|-----------------|-----------------|
|-----------------------*|*-----------------|-----------------|-----------------|
|-3-2-0-----------------*|*-----------------|-----------------|-----------------|
|-|_3_|-4-2-1-------4----|--3---------------|-4---------------|-5---------------|
|-------|_3_|-3-2-0-2----|--1---0-0-0-000-0-|-2---0-0-0-000-0-|-3---0-0-0-000-0-|
|             |_3_|                                                             |
| Gtr 2                                                                         |
|------------------------|------------------|-----------------|-----------------|
|------------------------|------------------|-----------------|-----------------|
|-----------------------*|*-----------------|-----------------|-----------------|
|-3-2-0-----------------*|*-10--------------|-11--------------|-12--------------|
|-|_3_|-4-2-1-------4----|--8---------------|-9---------------|-10--------------|
|-------|_3_|-3-2-0-2----|------0-0-0-000-0-|-----0-0-0-000-0-|-----0-0-0-000-0-|

                              4/4
                    2/4       Riff D                 (end Riff D)
|------------------|---------|-----------------|-----------------|
|------------------|---------|-----------------|-----------------|
|-----------------*|---------|-----------------|-----------------|
|-----------------*|---------|-----------------|-------------4444|
|-4----------------|-3-3-----|-----444433330000|-111133334444----|
|-2---0-0-0-000-0--|-1-1-----|-1111------------|-----------------|
|                                                                |
|                                                                |
|------------------|---------|-----------------|-----------------|
|------------------|---------|-----------------|-----------------|
|-----------------*|---------|-----------------|-----------------|
|-11--------------*|---------|-----------------|-----------------|
|-9----------------|-3-3-----|-3---------------|-----------------|
|-----0-0-0-000-0--|-1-1-----|-1---------------|-----------------|

play Riff D 5 times (Both Gtrs)

 Riff E                                                           (end Riff E)
|------------------|---------------------|-----------------|------------------|
|------------------|---------------------|-----------------|------------------|
|*-----------------|---------------------|-----------------|-----------------*|
|*-----------------|---------------------|-----------------|-----------------*|
|----------88887777|-10101010999988887777|---------88887777|-------------7----|
|--66665555--------|---------------------|-66665555--------|-8888888844445----|

play Riff D 4 times 
                                              play 4 times
|------------------|------------------|-------------------|------------------|
|------------------|------------------|-------------------|------------------|
|*-----------------|-----------------*|*-----------------*|*-----------------|
|*-----------------|-----------------*|*-----------------*|*-----------------|
|--3-------4-4-----|-5-------4-4------|--3---4---5-5-4----|------------------|
|--1-0000002-2-0000|-3-0000002-2-0000-|--1---2---3-3-2----|--1111222233332222|

                                  play 4 times
|-----------------|-----------------|---------|
|-----------------|-----------------|---------|
|-----------------|-44443333--------|---*/---*|
|-----------------|---------55556666|---/*---*|
|-----------------|-----------------|---------|
|-1111222233332222|-----------------|---------|

  Gtr 1
|-----------------|-------------------|-----------------|--------------------|
|-----------------|-------------------|-----------------|--------------------|
|-----------------|-------------------|-----------------|--------------------|
|-----------------|-------------------|-----------------|---------11/12-13---|
|-2---2-----2-----|-2---2---10/11-8~--|-2---2-----2-----|-2---2---9-/10-11---|
|-0-0-0-0-0-0-0-0-|-0-0-0-0-8-/9------|-0-0-0-0-0-0-0-0-|-0-0-0-0------------|
|                                                                            |
| Gtr 2                                                                      |
|-----------------|-------------------|-----------------|--------------------|
|-----------------|-------------------|-----------------|--------------------|
|-----------------|-------------------|-----------------|--------------------|
|-----------------|-------------------|-----------------|---------11/12-13---|
|-2---2-----2-----|-2---2---10/11-8~--|-2---2-----2-----|-2---2---9-/10-11---|
|-0---0-----0-----|-0---0---8-/9------|-0---0-----0-----|-0---0--------------|

 Riff F
|-----------------|-----------------|-----------------|--------------------|
|-----------------|-----------------|-----------------|--------------------|
|-----------------|-----------------|-----------------|--------------------|
|-----------------|-----------------|-----------------|---------10-10-10---|
|-----------------|----------h--8~--|-----------------|---------8--8--8----|
|-000-000-0-000-0-|-000-000-8-9-----|-000-000-0-000-0-|-000-000------------|

                                                               (end Riff F)
|-----------------|-----------------|-----------------|--------------------|
|-----------------|-----------------|-----------------|--------------------|
|-----------------|-----------------|-----------------|--------------------|
|-----------------|-----------------|-----------------|---------11/12-13---|
|-----------------|----------h--8~--|-----------------|---------9-/10-11---|
|-000-000-0-000-0-|-000-000-8-9-----|-000-000-0-000-0-|-000-000------------|


|-----------------|------------------|-----------------|--------------------|
|-----------------|------------------|-----------------|--------------------|
|-----------------|------------------|-----------------|--------------------|
|-----------------|-------------10---|-----------------|---------10-10-10---|
|-----------------|----------h--8----|-----------------|---------8--8--8----|
|-0000000000000000|-000000008-9------|-0000000000000000|-00000000-----------|


|-----------------|-----------------|-----------------|--------------------|
|-----------------|-----------------|-----------------|--------------------|
|-----------------|-----------------|-----------------|--------------------|
|-----------------|-----------------|-----------------|---------11/12-13---|
|-----------------|----------h--8~--|-----------------|---------9-/10-11---|
|-0000000000000000|-000000008-9-----|-0000000000000000|-00000000-----------|

play Riff F

 Gtr 2  w/Riff D 6 times               (Both Gtrs)
|-----------------|-------------------|-------------------|
|-----------------|----play-Riff E----|----play-Riff-E----|
|-----------------|*-----5-times-----*|*-----------------*|
|-----------------|*-----------------*|*-----------------*|
|-3---------------|-------------------|-------------------|
|-1---------------|-------------------|-------------------|

 Gtr 2  w/Riff D 4 times
|-------------------------|------------------------------|-----------------||
|-------------------------|---------------------+-+-+-+--|-----------------||
|*-----*-*-*-*------------|-------------*-*-*-*-11111111*|-----------------||
|*-----1111111101010107777|-88881010101011111111--------*|-4---------------||
|--8888-------------------|------------------------------|-4---------------||
|-------------------------|------------------------------|-2---------------||
                 * = Db on 11th fret      
                 + = F# on 11th fret





Comments


Popular Malevolent Creation tabs & chords
Eve Of The Apocalypse Tabs
Malevolent Creation Tabs
Manic Demise Tabs
Memorial Arrangements Tabs
Multiple Stab Wounds Tabs
Preemptive Strike Tabs
Premature Burial Tabs
Remnants Of Withered Decay Tabs
The Will To Kill Tabs
To Die Is At Hand Tabs


Song lyrics



↑ Back to top | Tablatures and chords are parodies/interpretations of the original songs. You may use it for private study, scholarship, research or language learning purposes only
© 2014 AZChords.com Contact us | Privacy policy | DMCA | Add/correct tabs | Request tabs | Top 50 tabs