» » »

Dead March Tabs (ver.1)

Artists:  A B C D E F G H I J K L M N O P Q R S T U V W X Y Z # 

Dead March Tabs (ver.1)

Malevolent Creation
Rating:
0/5 (0 votes)

Hard to play? Try these video lessons and learn fast.
                Band: Malevolent Creation



Code:
Suffixes for bend:
fb - full bend       hb - half bend
qb - quarter bend    t - tap bend
^ - Hold bend        r - release bend
~ - vibrato bend

Suffixes for harmonic:
ph - pinched harmonic      nh – natural harmonic
ah – artificial harmonic   hh – harp harmonic

Suffixes for mute:
. – palm mute            x – staccato mute
, - light palm mute      ; - heavy palm mute

Other:
/ - slide up to            \ - slide down to
h - hammer on              p - pull off
‘ - sustained note         * - see comment
" - tremolo note           <> - Trill
L – left channel only      R – right channel only
= - 12 string guitar part

Tuning B E A D F# B

Intro (0:01)
|------------------------------------|
|------------------------------------|
|------------------------------------|
|------------------------------------|
|-4---------------2--4---------------|
|-2---------------0--2---------------|


Riff 1a (0:13) play twice
|----------------------------------------------------------------------------|
|----------------------------------------------------------------------------|
|----------------------------------------------------------------------------|
|----------------------------------------------------------------------------|
|-2--4-----------------------------------------------------------------------|
|-0--2-----------------------------------------------------------------------|

|----------------------------------------------------------------------------|
|----------------------------------------------------------------------------|
|----------------------------------------------------------------------------|
|----------------------------------------------------------------------------|
|-2--------------------4-4-4-3-3-3-------3-3-3-------------------------4-4-4-|
|-0--2-2-2-2-2-2-5-5-5-------------5-5-5-------0-0-0-2-2-2-2-2-2-5-5-5-------|
     . . . . . . . . . . . . . . . . . . . . . . . . . . . . . . . . . . . .

---------------------|
---------------------|
---------------------|
---------------------| gtr 1
-(4)-----------------|
-(2)-----------------|

---------------------|
---------------------|
---------------------|
---------------------| gtr 2
-3-3-3-------3-3-3---|
-------5-5-5---------|
 . . . . . . . . .


Riff 1b (0:26) play 4 times
|----------------------------------------------------------------------------|
|----------------------------------------------------------------------------|
|----------------------------------------------------------------------------|
|----------------------------------------------------------------------------|
|-2--------------------4-4-4-3-3-3-------3-3-3-------------------------4-4-4-|
|-0--2-2-2-2-2-2-5-5-5-------------5-5-5-------0-0-0-2-2-2-2-2-2-5-5-5-------|
     . . . . . . . . . . . . . . . . . . . . . . . . . . . . . . . . . . . .

--------------------|
--------------------|
--------------------|
--------------------|
-3-3-3-------3-3-3--|
-------5-5-5--------|
 . . . . . . . . .


Riff 2 (0:53) play twice
|-------------------------------------------------------------------|
|-------------------------------------------------------------------|
|-------------------------------------------------------------------|
|-------------------------------------------------------------------|
|-5/7\6-8--------8-------6-8-7-5/7\6-8------8-----------------------|
|-3/5\4-6-0"-----6-0"----4-6-5-3/5\4-6-0"---6-0"-6p5p3-4-1-0-1-3-4--|
          .        .     . . .         .

Riff 3 (1:07) play 4 times
|----------------------------------------------------------------------------|
|----------------------------------------------------------------------------|
|----------------------------------------------------------------------------|
|----------------------------------------------------------------------------|
|-3\2--------------------3\2--------3\2---5\2--3\2--------------8p5-5-5-5-5--|
|-1\0--0-0-0-0-0-0-0-0-5-1\0--0-0-0-1\0-0-3\0--1\0--0-0-0-0-0-0-------6-6-6--|
       . . . . . . . . .      . . .     .           . . . . . .       . . .

--------------------|
--------------------|
--------------------|
--------------------|
-5-5-5-5-5-5-5-5-5--|
-6-6-6-3-3-3-3-3-3--|
 . . . . . . . . .

Riff 1b x 1 (1:33)
Riff 2 x 1 (2:00)
Riff 3 x 1 (2:14)

End (2:40)
|--------------------|
|--------------------|
|--------------------|
|--------------------|
|-2------------------|
|-0------------------|
            
Hard to play? Try these video lessons and learn fast. | Correct




comments powered by Disqus
↑ Back to top | Tablatures and chords are parodies/interpretations of the original songs. You may use it for private study, scholarship, research or language learning purposes only