» » »

Malevolent Creation, Carnivorous Misgvings Tabs (ver.1)

Artists:  A B C D E F G H I J K L M N O P Q R S T U V W X Y Z # 

Carnivorous Misgvings Tabs (ver.1)

Malevolent Creation Tabs
Rating:
0/5 (0 votes)
Carnivorous Misgvings lessons Tabs too difficult? Try these video lessons and learn fast
                Malevolent Creation
“Carnivorous Misgivings”
  from the album “Stillborn” 
   (Roadrunner 1993)

Notes :

Guitar tunning C #
Pm : palm muting
h : hammer on
p :  pull oof

“Primissima canzone in assoluto che riesco a
 tirare giù dei Malevolent! Ho provato a tirare
 giù qualcosa di “The Ten Commandaments”
 e “Retribution”; ma dato che le canzoni di 
questi due album sono abbastanza difficili 
da tirare giù ad orecchio, ho provato con 
“Stillborn”. Sono slittato subito alla
traccia numero sette Carnivorous 
Misgivings. Dopo vari tentativi sono 
riuscito, ed ecco il risultato….
Ovviamente non sarà perfettissima
 la mia tab, però ci sono andato vicino. 
Imparate a suonare il Riff
2 che è veramente una bomba!!! 
Lunga vita ai Malevolent Creation!!!”

Musica : Phil Fasciana                                                                                          
Testo : Brett Hoffmann


Intro Guitar 1 & 2 :
suonare una sola volta
-----------------------------------------------
-----------------------------------------------
-----------------------------------------------
----8----9----8----9----8----9----8----9----8--
----8----9----8----9----8----9----8----9----8--
-00-6-00-7-00-6-00-7-00-6-00-7-00-6-00-7-00-6--
pm    pm   pm   pm   pm   pm   pm   pm   pm   

"Uh!"

Riff 1 (Lyrics: "Taste of blood...") 
Guitar 1 & 2  :
----------------------------------------
----------------------------------------
----------------------------------------
--------------------4------------4------
--------------------2------------2------
-11111111--44433222-----11111111--------
pm        pm            pm                 

continuazione :
------------------------------------
------------------------------------
------------------------------------
----------4----------------------4--
-6-6-5-4--2------------6---------2--
-4-4-3-2-----11111111--4--4433222---
pm          pm            pm 


continuation of Riff 1 :
-----------------------------------
-----------------------------------
-----------------------------------
---------------4---------4---------
---------------2--6-5-4--2--6-5-4--
-11111111---------4-3-2-----4-3-2--
pm                pm         pm

end of Riff 1
                                                     
Riff 2 (yeah! Spetacolare stò riff!!!) :

Guitar 1 & 2 ripetere 2 volte :
---------------------------------------------------------
---------------------------------------------------------
---------------------------------------------------------
---------------------------------------------------------
----8h7p8---555777---------------8h7p8--5557777----------
-0-----------------888-10h9p8--0----------------77777----

Ripetere Riff 1 per 2 volte 
(Lyrics : “Tooth and talon dig at flesh…”)

Chorus :

Guitar 1 :
---------------------------------------------------
---------------------------------------------------
---------------------------------------------------
---------4-3-4------3-----------4--3-----3---------
---------4-3-4------3-----------4--3-----3---------
11-11-1--2-1-2-22-1-1--11-11-1--2--1-221-1---------
all pm

Guitar 2 :
-------------------------------------------------
-------------------------------------------------
-------------------------------------------------
-3-4--3--------3-------------4---3-------3-------
-3-4--3--------3-------------4---3-------3-------
-1-2--1--22-1--1-------------2---1--221--1-------
pm ...................     pm....................  

Guitar 1 & 2 ripeteno il ritornello 
Lyrics :"Carnivorous misgivins of a god that is gone...") 
per 3 volte :

Fill (suonare alla terza e ultima volta) :

----------------------------------------------
----------------------------------------------
----------------------------------------------
---------4-3------3------------4--3---4-------
---------4-3------3------------4--3---4-------
11-11-1--2-1-22-1-1--11-11-1---2--1---2-------
all pm

pausa : (Lyrics: "Liiiii...")

Riff 3 ("Live for the hunt...") Guitar 1 & 2 :
ripetere 4 volte  
-----------------------------------------------
-----------------------------------------------
-----------------------------------------------
-----------------------------------------------
-----------------9999777101010--77997779999----
-22222222222-----------------------------------
pm                            
                                         
continuation of Riff 3 :
----------------------------------------------
----------------------------------------------
----------------------------------------------
----------------------------------------------
----------------77771010101077777-------------
-22222222222----------------------------------
pm               
end of Riff 3

Repeat Riff 2 per 2 volte
Ripetere Riff 1 per 2 volte
Ripetere chorus per 3 volte
Ripetere Riff 3 per 3 volte
Ripetere Riff 2 per 2 volte

Riff 3 arrangiato per il mid tempo 
(Guitar 1 & 2) :
                                                                            ripetere 2 volte
----------------------------------------------------
----------------------------------------------------
----------------------------------------------------
----------------------------------------------------
-9999----------------99977101010107779997779999-----
-------2222222222-----------------------------------
          pm 
continuation of Riff 3 mid tempo :
-------------------------------------------
-------------------------------------------
-------------------------------------------
-------------------------------------------
-----------------7777710101010777777-------
-2222222222--------------------------------
 pm              
end of Riff 3

Repetere Riff 2 per 4 volte 
(Lyrics : “Constant before taking prey…”)

End :
Guitar 1 & 2 :
------------------------
------------------------
------------------------
-4-3-4-------3----------
-4-3-4-------3----------
-2-1-2--22-1-1----------
              The end!!

Lyrics :

Taste of blood spurns the life
Scent of death drives it on 
Live for the hunt, to dominate
Its instinct and derise

Tooth and tallon dig at flesh
Snapping tendon at bone
Gorging on the freshly  killed
Triumphant stand alone

Chorus :
Carnivorous misgivings of a god that is gone
Era shut 
Never to rule again

Live for the hunt dialed in
Predators above the rest
Seeking blood, its only religion  
Alive to kill, wickedly blessed
No satisfation in aquiring prey
Never receives its fill

Toot and tallon ripping flesh
The snap of tendon and bone
Gorging on the freshly killed
Triumphant stand alone

Repeat chorus

Once walked the world a king
Nothing cold stand before it
Hostile whit a purpose
Stalking the warm crour

Constant hunt talking prey
Never receives its fill
Born whit an instinct to slay
To achieve endless kill

Power behind immagination
No throne could garrish it
Only to fall into extincion
Natural selection to blame

“Grande song!!! NO ONE CAN DESTROY THIS MALEVOLENT CREATION….”

      Fasa 85
JESUS an*l PENETRATION
            

comments powered by Disqus
↑ Back to top | Malevolent Creation Tabs for Carnivorous Misgvings. Lyrics for acoustic guitar and electric guitar. Tablatures and chords are parodies/interpretations of the original songs. You may use it for private study, scholarship, research or language learning purposes only