>
 >
Traitor To All You Know

Traitor To All You Know Guitar Tabs

Malefice - Traitor To All You Know chords, tabs, tablatures, lyrics

Guitar lessons | Add/correct | Request | Top 50 tabs Artists:  A B C D E F G H I J K L M N O P Q R S T U V W X Y Z 0-9

Traitor To All You Know Guitar Tabs – Malefice

CD, Sheet music, Poster

Do you like Traitor To All You Know? Share with your friends now
Bass TabsTabs


h: hammer-on
p: pull-off
b/: bend up
b\: bend down

Intro

D-----------------------------------------------------------------------|
A-----------------------------------------------------------------------|
F-------------888-777-555-777-555-333-5-555-5-5-888-777-555-777-555-333-|
C---0-000-0-0-------------------------5-555-5-5-------------------------|
G---0-000-0-0-------------------------3-333-3-3-------------------------|
C---0-000-0-0-----------------------------------------------------------|

D-----------------------------------------------------------------------|
A-----------------------------------------------------------------------|
F--3-333-3-3--888-777-555-777-555-333-2-222-2-2--3-33-333333-3-5--------|
C--3-333-3-3--------------------------2-222-2-2--3-33-333333-3-5--------| (x2)
G--1-111-1-1--------------------------0-000-0-0--1-11-111111-1-3--------|
C-----------------------------------------------------------------------|

Intro to Verse/Verse

D-----------------------------------------------------------------------|
A-----------------------------------------------------------------------|
F-----------------------------------------------------------------------|
C--0---------7h8--------------------------------------------------------|
G--0----------------------8h10----7h8----3h5-------7h8p7----------------|
C--0-0-00-00-----00-00-00-----0-0----0-0-----0-0-0------10--------------|

D-----------------------------------------------------------------------|
A-----------------------------------------------------------------------|
F-----------------------------------------------------------------------|
C--------------------------------------------------------8p7------------| (x3)
G--8-0-7-0-8-0-7-0-8-0-7-0-8h10--8-0-7-0-8-0-7-0-8-0-7-0-----10p8-------|
C-----------------------------------------------------------------------|

Pre-Chorus

There are many things you can do here, but this is the basic pattern

D---------------------|
A---------------------|
F---------------------|
C--3-5-7-8-5-7-8-10-0-| (x1)
G-------------------0-|
C-------------------0-|

Chorus

              Guitar 1
D-----------------------------------------------------------------------|
A-----------------------------------------------------------------------|
F---------------------------------333-33--333-33----------2-2-3-3-------|
C--000-00--000-00--333-33-333-33--333-33--333-33--333-33--2-2-3-3-------| (x2)
G--000-00--000-00--333-33-333-33--111-11--111-11--333-33--0-0-1-1-------|
C--000-00--000-00--333-33-333-33------------------333-33----------------|


              Guitar 2
D----------------------------------------------------------------------|
A---------------------------------5-6-8p6h8p6h8p6----------------------|
F--------------------------------------------------------2-2-3-3-------|
C--000-00--000-00--333-33-333-33-----------------333-33--2-2-3-3-------| (x2)
G--000-00--000-00--333-33-333-33-----------------333-33--0-0-1-1-------|
C--000-00--000-00--333-33-333-33-----------------333-33----------------|

Verse Riff (x3)
Pre-Chorus (x1)
Chrous (x2)

Bridge1

D-----------------------------------------------------------|
A-----------------------------------------------------------|
F-----------------------------------------------------------|
C----5h7p5-3-5-3---5h7p5-3-5-3------------------------------| (x2)
G--5-------------3--------------0-7h8p7-5-7-5-3-5-3-0h3p0---|
C------------------------------3----------------------------|

Breakdown

D---------------------------------------------------------------|
A-------------10b/----------------------------------------------|
F-------------10b/-----------7b/-----------5b/-----------14b/---|
C--0-0--0-0--------0-0--0-0------0-0--0-0------0-0--0-0---------|
G--0-0--0-0--------0-0--0-0------0-0--0-0------0-0--0-0---------|
C--0-0--0-0--------0-0--0-0------0-0--0-0------0-0--0-0---------|

D------------------------------------------------------------|
A------------------------------------------------------------|
F------------------------------------------------------------|
C--0-0--0-0---0-0--0-0------0-0--0-00--0-0--0-00-------------|
G--0-0--0-0---0-0--0-0------0-0--0-00--0-0--0-00-------------|
C--0-0--0-0---0-0--0-0------0-0--0-00--0-0--0-00-------------|

                 Guitar 1
D----------------------|
A----------------------|
F----------------------|
C--0-0--0-0------------| (x4)
G--0-0--0-0-555-000-6--|
C--0-0--0-0------------|

                 Guitar 2
D----------------------|
A----------------------|
F----------------------|
C--0-0--0-0-777-000-8--| (x2)    Wait until guitar 1 has played twice
G--0-0--0-0------------|
C--0-0--0-0------------|

Bridge 2

D--------------------------------------|
A--------------------------------------|
F--------------------------------------|
C--3-5-7-8--5-7-8-10--2-3-5-3--3-5-7-5-|
G--------------------------------------|
C--------------------------------------|

Verse Riff (x2)
Bridge 1
Chorus (x2)

Tag

D---------------------------------------------------------------|
A---------------------------------------------------------------|
F---------------------------------------------------------------|
C--0----------7h8--------------------------------------------0--|
G--0-----------------------8h10-----7h8-----3h5-------8-7----0--|
C--0-0-00-00------00-00-00------0-0-----0-0-----0-0-0-----10-0--|





Comments


Popular Malefice tabs & chords
Traitor To All You Know Bass Tabs
End Of Days Tabs
Hatred Justified Tabs
Horizon Burns Tabs


Song lyrics



↑ Back to top | Tablatures and chords are parodies/interpretations of the original songs. You may use it for private study, scholarship, research or language learning purposes only
© 2014 AZChords.com Contact us | Privacy policy | DMCA | Add/correct tabs | Request tabs | Top 50 tabs