>
 >
Traitor To All You Know

Traitor To All You Know Bass Tabs

Malefice - Traitor To All You Know chords, tabs, tablatures, lyrics

Guitar lessons | Add/correct | Request | Top 50 tabs Artists:  A B C D E F G H I J K L M N O P Q R S T U V W X Y Z 0-9

Traitor To All You Know Bass Tabs – Malefice

CD, Sheet music, Poster

Do you like Traitor To All You Know? Share with your friends now
Bass TabsTabs
Track: 6


I believe this is the 1st MALEFICE tab on the net so its bound to be wrong at some 
if you have any corrections

~ = hold note
/ = slide
h = hammer on
p = pull off

intro: (over the 2 acostic guitars)
0:25
G||---------------------------|-----------------------|------------------|-------|-----8-|
D||-12/13-15-13-12-13-12-10-8-|-12/13-12-10-12-10-8-6-|-12-10-8-10-8-6-8-|-5-6-8-|-6-8---|
A||---------------------------|-----------------------|------------------|-------|-------|
E||---------------------------|-----------------------|------------------|-------|-------|

G||---------------------------|-----------------------|------------------|----------|
D||-12/13-15-13-12-13-12-10-8-|-12/13-12-10-12-10-8-6-|-12-10-8-10-8-6-8-|-5-6-8-6~-|
A||---------------------------|-----------------------|------------------|----------|
E||---------------------------|-----------------------|------------------|----------|

>PAUSE<

Heavy riff:
0:57                                                                                     
                    x2
G||---------------------------------------------|----------------------------|-------------------------------|
D||---------------------------------------------|----------------------------|-------------------------------|
A||---------------------------------------------|----------------------------|-------------------------------|
E||-10/11-1111-111111-13-11-10-11-10-8-6-66-666-|-10/11-10-8-10-8-6-4-44-444-|-10-8-6-8-6-4-6-66-666-3h4-44~-|

>JUST GUITAR RIFF<

1:29
G||--------|
D||-10~-6~-|
A||--------|
E||--------|

1:33 (riff starts with lyrics)
(dont no exsactly how many of each of these notes are played you listen and work it out)
                                                 x2
G||--------------|--------------|---------------|
D||--------------|--------------|---------------|
A||--------------|--------------|---------------|
E||-888888888888-|-666666666666-|-4444444444444-|

1:51
G||---------------------------|
D||---------------------------|
A||---------------------------|
E||-8-10-11-13-10-11-13-15-8~-|

1:56
                                        x4
G||-------------------------------------|
D||-------------------------------------|
A||-------------------------------------|
E||-88-8-8-8-66-6-6-6-44-4-4-4-44-4-4-4-|

>JUST GUITAR RIFF<

2:28
G||--------|
D||-10~-6~-|
A||--------|
E||--------|

2:33 (riff starts with lyrics)
(dont no exsactly how many of each of these notes are played you listen and work it out)
                                                 x2
G||--------------|--------------|---------------|
D||--------------|--------------|---------------|
A||--------------|--------------|---------------|
E||-888888888888-|-666666666666-|-4444444444444-|

2:50
G||---------------------------|
D||---------------------------|
A||---------------------------|
E||-8-10-11-13-10-11-13-15-8~-|

2:55
                                        x4
G||-------------------------------------|
D||-------------------------------------|
A||-------------------------------------|
E||-88-8-8-8-66-6-6-6-44-4-4-4-44-4-4-4-|

3:23
                x2
G||-------------|
D||-------------|
A||-------------|
E||-8~-6~-4~-4~-|

3:36
(played in time with drums happens 4 times with big spaces then  more freqwently)
             x12
G||---------|
D||---------|
A||---------|
E||-88-8x-8-|

4:12
                           x2
G||------------------------|
D||------------------------|
A||------------------------|
E||-8-10-11-13-10-11-13-15-|

4:21 (riff starts with lyrics)
(dont no exsactly how many of each of these notes are played you listen and work it out)
                                                 x2
G||--------------|--------------|---------------|
D||--------------|--------------|---------------|
A||--------------|--------------|---------------|
E||-888888888888-|-666666666666-|-4444444444444-|

4:39
G||---------------------------|
D||---------------------------|
A||---------------------------|
E||-8-10-11-13-10-11-13-15-8~-|

4:44
                                        x4
G||-------------------------------------|
D||-------------------------------------|
A||-------------------------------------|
E||-88-8-8-8-66-6-6-6-44-4-4-4-44-4-4-4-|

outro:
5:12                                                                                     
                    x2
G||---------------------------------------------|----------------------------|-------------------------------|
D||---------------------------------------------|----------------------------|-------------------------------|
A||---------------------------------------------|----------------------------|-------------------------------|
E||-10/11-1111-111111-13-11-10-11-10-8-6-66-666-|-10/11-10-8-10-8-6-4-44-444-|-10-8-6-8-6-4-6-66-666-3h4-44~-|

>JUST GUITAR RIFF<

5:42
            x1
G||---------|
D||---------|
A||---------|
E||-88-8x-8-|

MALEFICE RULE!!!!!!!





Comments


Popular Malefice tabs & chords
End Of Days Tabs
Hatred Justified Tabs
Horizon Burns Tabs
Traitor To All You Know Tabs


Song lyrics



↑ Back to top | Tablatures and chords are parodies/interpretations of the original songs. You may use it for private study, scholarship, research or language learning purposes only
© 2014 AZChords.com Contact us | Privacy policy | DMCA | Add/correct tabs | Request tabs | Top 50 tabs