>
 >
Hatred Justified

Hatred Justified Guitar Tabs

Malefice - Hatred Justified chords, tabs, tablatures, lyrics

Guitar lessons | Add/correct | Request | Top 50 tabs Artists:  A B C D E F G H I J K L M N O P Q R S T U V W X Y Z 0-9

Hatred Justified Guitar Tabs – Malefice

CD, Sheet music, Poster

Do you like Hatred Justified? Share with your friends now
Tabs

Tuning: Drop C (CGCFAD)

Hey guys, i hope you all enjoy playing this as much as i do! The speed is tricky in the 
but great fun when you get it down.The Solo and Solo backing are almost done but wanted 
get what i had posted.

If there are any mistakes or queries about the tab,leave a comment and i will check them 
and sort it.Im pretty sure its damn close, i havent tabbed a song in a few years but am 
to critisism =)

More Malefice tabs to come!


Intro
|------------------------------------|
|------------------------------------|
|------------------------------------|
|--8-8-8-----------8-8-8-------------|
|--6-6-6-----------6-6-6-------------|
|---------111-111---------1111/7777--|

|----------------------------------------------------------------------|
|----------------------------------------------------------------------|
|----------------------------------------------------------------------|
|----------7---6-------6---5--------------7---6---10-9-------9-8-------|
|------8-----------7-----------66-----8----------------11-10-----10-9--|
|--0-0---0---0---0---0---0---0----0-0---0---0---0----------------------|
pm . .   .   .   .   .   .   .    . .   .   .   .

|----------------------------------------------------------------------|
|----------------------------------------------------------------------|
|----------------------------------------------------------------------|
|----------7---6-------6---5--------------7---6------------------------|
|------8-----------7-----------66-----8--------------------------------|
|--0-0---0---0---0---0---0---0----0-0---0---0---0--1111/7777-----------|
pm . .   .   .   .   .   .   .    . .   .   .   .

|------------------------------------|
|------------------------------------|
|------------------------------------|
|--8-8-8-----------8-8-8-------------|
|--6-6-6-----------6-6-6-------------|
|---------111-111---------1111/7777--|

Verse
|----------------------------------------------------------------------|
|----------------------------------------------------------------------|
|----------------------------------------------------------------------|
|----------7---6-------6---5--------------7---6---10-9-------9-8-------|
|------8-----------7-----------66-----8----------------11-10-----10-9--|
|--0-0---0---0---0---0---0---0----0-0---0---0---0----------------------|
pm . .   .   .   .   .   .   .    . .   .   .   .

|----------------------------------------------------------------------|
|----------------------------------------------------------------------|
|----------------------------------------------------------------------|
|----------7---6-------6---5--------------7---6------------------------|
|------8-----------7-----------66-----8--------------------------------|
|--0-0---0---0---0---0---0---0----0-0---0---0---0--1111/7777-----------|
pm . .   .   .   .   .   .   .    . .   .   .   .

|-------------------------------------------------------------------------|
|-------------------------------------------------------------------------|
|-------------------------------------------------------------------------|
|----10---9---10---9---10---9---99----10---9---10---9---10----12-11-------|
|-------------------------------------------------------------------12-11-|
|-99----9---9----9---9----9---9----99----9---9----9---9-----9-------------|
pm..    .   .    .   .    .   .    ..    .   .    .   .     .
|----------------------------------------------------------------------|
|----------------------------------------------------------------------|
|----------------------------------------------------------------------|
|----------7---6-------6---5--------------7---6------------------------|
|------8-----------7-----------66-----8--------------------------------|
|--0-0---0---0---0---0---0---0----0-0---0---0---0--1111/7777-----------|
pm . .   .   .   .   .   .   .    . .   .   .   .

Pre Chorus
|----------------------------------------------------------------------|
|----------------------------------------------------------------------|
|----------------------------------------------------------------------|
|----------------------------------------------------------------------|
|------3333------3333----------2222------2222----------3333------3333--|
|-2222------2222------22221111------1111------11112222------2222-------|
pm.... .... .... .... ........ .... .... .... ........ .... .... ....

|-------------------------------------------------|
|-------------------------------------------------|
|-------------------------------------------------|
|-------------------------------------------------|
|-----------2222------2222-------/12-10-8-7-8-12--|
|--22221111------1111------1111-------------------|
pm ........ .... .... .... ....

Chorus
|--------------------------------------------------------|
|--------------------------------------------------------|
|--------------------------------------------------------|
|--3333333333333333--5555555555555555--7777777777777777--|
|--3333333333333333--5555555555555555--7777777777777777--|
|--3333333333333333--5555555555555555--7777777777777777--|

|-----------------------------------------|
|-----------------------------------------|
|-----------------------------------------|
|--101010101010101010101010--10-10-10-10--|
|--101010101010101010101010--10-10-10-10--|
|--101010101010101010101010--10-10-10-10--|
pm                           .  .  .  .

Chorus Lead
|-----------------------------------------------------------------------|
|-----------------------------------------------------------------------|
|-10-------10-------10-------10-------10----------7------7------7-------|
|----10-------10-------10-------10-------10----10---9------9------9-----|
|-------12-------12-------12-------12-------12--------10-----10-----10--|
|-----------------------------------------------------------------------|

|--------------------------------------------------------------------|
|--------------------------------------------------------------------|
|-7------7------------9-----9-----9-----9-----9---------12-------12--|
|---9------9----9---7-----7-----7-----7-----7---9----10-------10-----|
|-----10-----10---7-----7-----7-----7-----7-------10-------10--------|
|--------------------------------------------------------------------|

|------------------------------------|
|------------------------------------|
|-------12-------12------------------|
|----10-------10----10--10-10-10-10--|
|-10-------10-----------10-10-10-10--|
|-----------------------10-10-10-10--|
pm                      .  .  .  .

|----------------------------|
|----------------------------|
|-141414/151515151515151515--|
|-x-x-x--x-x-x-x-x-x-x-x-x---| x4
|-141414/151515151515151515--|
|----------------------------|

Verse
|------------------------------------|
|------------------------------------|
|------------------------------------|
|--8-8-8-----------8-8-8-------------|
|--6-6-6-----------6-6-6-------------|
|---------111-111---------1111/7777--|

|----------------------------------------------------------------------|
|----------------------------------------------------------------------|
|----------------------------------------------------------------------|
|----------7---6-------6---5--------------7---6---10-9-------9-8-------|
|------8-----------7-----------66-----8----------------11-10-----10-9--|
|--0-0---0---0---0---0---0---0----0-0---0---0---0----------------------|
pm . .   .   .   .   .   .   .    . .   .   .   .

|----------------------------------------------------------------------|
|----------------------------------------------------------------------|
|----------------------------------------------------------------------|
|----------7---6-------6---5--------------7---6------------------------|
|------8-----------7-----------66-----8--------------------------------|
|--0-0---0---0---0---0---0---0----0-0---0---0---0--1111/7777-----------|
pm . .   .   .   .   .   .   .    . .   .   .   .

|-------------------------------------------------------------------------|
|-------------------------------------------------------------------------|
|-------------------------------------------------------------------------|
|----10---9---10---9---10---9---99----10---9---10---9---10----12-11-------|
|-------------------------------------------------------------------12-11-|
|-99----9---9----9---9----9---9----99----9---9----9---9-----9-------------|
pm..    .   .    .   .    .   .    ..    .   .    .   .     .

|----------------------------------------------------------------------|
|----------------------------------------------------------------------|
|----------------------------------------------------------------------|
|----------7---6-------6---5--------------7---6------------------------|
|------8-----------7-----------66-----8--------------------------------|
|--0-0---0---0---0---0---0---0----0-0---0---0---0--1111/7777-----------|
pm . .   .   .   .   .   .   .    . .   .   .   .

Pre Chorus
|----------------------------------------------------------------------|
|----------------------------------------------------------------------|
|----------------------------------------------------------------------|
|----------------------------------------------------------------------|
|------3333------3333----------2222------2222----------3333------3333--|
|-2222------2222------22221111------1111------11112222------2222-------|
pm.... .... .... .... ........ .... .... .... ........ .... .... ....

|-------------------------------------------------|
|-------------------------------------------------|
|-------------------------------------------------|
|-------------------------------------------------|
|-----------2222------2222-------/12-10-8-7-8-12--|
|--22221111------1111------1111-------------------|
pm ........ .... .... .... ....

Chorus
|--------------------------------------------------------|
|--------------------------------------------------------|
|--------------------------------------------------------|
|--3333333333333333--5555555555555555--7777777777777777--|
|--3333333333333333--5555555555555555--7777777777777777--|
|--3333333333333333--5555555555555555--7777777777777777--|

|-----------------------------------------|
|-----------------------------------------|
|-----------------------------------------|
|--101010101010101010101010--10-10-10-10--|
|--101010101010101010101010--10-10-10-10--|
|--101010101010101010101010--10-10-10-10--|
pm                           .  .  .  .

Chorus Lead
|-----------------------------------------------------------------------|
|-----------------------------------------------------------------------|
|-10-------10-------10-------10-------10----------7------7------7-------|
|----10-------10-------10-------10-------10----10---9------9------9-----|
|-------12-------12-------12-------12-------12--------10-----10-----10--|
|-----------------------------------------------------------------------|

|--------------------------------------------------------------------|
|--------------------------------------------------------------------|
|-7------7------------9-----9-----9-----9-----9---------12-------12--|
|---9------9----9---7-----7-----7-----7-----7---9----10-------10-----|
|-----10-----10---7-----7-----7-----7-----7-------10-------10--------|
|--------------------------------------------------------------------|

|------------------------------------|
|------------------------------------|
|-------12-------12------------------|
|----10-------10----10--10-10-10-10--|
|-10-------10-----------10-10-10-10--|
|-----------------------10-10-10-10--|
pm                      .  .  .  .

|----------------------------|
|----------------------------|
|-141414/151515151515151515--|
|-x-x-x--x-x-x-x-x-x-x-x-x---| x4
|-141414/151515151515151515--|
|----------------------------|

Bridge
|-----------------------------------------------------------------------|
|-----------------------------------------------------------------------|
|-10-------10-------10-------10-------10----------7------7------7-------|
|----10-------10-------10-------10-------10----10---9------9------9-----|
|-------12-------12-------12-------12-------12--------10-----10-----10--|
|-----------------------------------------------------------------------|

|------------------|
|------------------|
|-7------7---------|
|---9------9----9--|
|-----10-----10----|
|------------------|

|-----------------------------------------------------------------------|
|-----------------------------------------------------------------------|
|-10-------10-------10-------10-------10----------7------7------7-------|
|----10-------10-------10-------10-------10----10---9------9------9-----|
|-------12-------12-------12-------12-------12--------10-----10-----10--|
|-----------------------------------------------------------------------|

|--------------------------------------------------------------------|
|--------------------------------------------------------------------|
|-7------7------------9-----9-----9-----9-----9---------12-------12--|
|---9------9----9---7-----7-----7-----7-----7---9----10-------10-----|
|-----10-----10---7-----7-----7-----7-----7-------10-------10--------|
|--------------------------------------------------------------------|

|----------------------------------------------------------------|
|----------------------------------------------------------------|
|-------12-------12----------------------------------------------|
|----10-------10----10--10-1010-10-1010-10-10--------------------|
|-10-------10-----------10-1010-10-1010-10-10-----------/10-8-7--|
|-----------------------10-1010-10-1010-10-10--33333333----------|
pm                         . .     . .     .

Solo
Solo Backing

Breakdown
|---------------------------------------------------------------|
|---------------------------------------------------------------|
|---------------------------------------------------------------|
|---------------------------------------------------------------|
|-0--------------------0------2-3--------------------3------5---|
|-0-000-000-000-000000-0-2222-2-3-333-333-333-333333-3-5555-5---|
pm  ... ... ... ......   ....     ... ... ... ......   ....

|-------------------------------------------------------------------------|
|-------------------------------------------------------------------------|
|-------------------------------------------------------------------------|
|-------------------------------------------------------------------------|
|-7--------------------7------9----------10-3--------------------3------2-|
|-7-777-777-777-777777-7-9999-9-10101010-10-3-333-333-333-333333-3-2222-2-|
pm  ... ... ... ......   ....   . . . .       ... ... ... ......   ....

|-----------------------------------------------------------------------|
|-----------------------------------------------------------------------|
|-10-------10-------10-------10-------10----------7------7------7-------|
|----10-------10-------10-------10-------10----10---9------9------9-----|
|-------12-------12-------12-------12-------12--------10-----10-----10--|
|-----------------------------------------------------------------------|

|---------------------------|
|---------------------------|
|-7------7------------------|
|---9------9----9--2-2-2-2--|
|-----10-----10----2-2-2-2--|
|------------------2-2-2-2--|
pm                 . . . .

Chorus

Chorus Pt2
|--------------------------------------------------------------------------|
|--------------------------------------------------------------------------|
|--------------------------------------------------------------------------|
|--------------------------------------------------------------------------|
|--------------------------------------------------------------------------|
|-3333333333333333-5555555555555555-77777777-9999-101010101010101010101010-|

|----------------|
|----------------|
|----------------|
|----------------|
|------------3~--|
|-555-333-22-3~--|

Outro
|-----------------------------------------------------------------------|
|-----------------------------------------------------------------------|
|-10-------10-------10-------10-------10----------7------7------7-------|
|----10-------10-------10-------10-------10----10---9------9------9-----|
|-------12-------12-------12-------12-------12--------10-----10-----10--|
|-----------------------------------------------------------------------|

|----------------------|
|----------------------|
|-7------7-------------|
|---9------9----9--9~--|
|-----10-----10----7~--|
|------------------7~--|





Comments


Popular Malefice tabs & chords
Traitor To All You Know Bass Tabs
End Of Days Tabs
Horizon Burns Tabs
Traitor To All You Know Tabs


Song lyrics



↑ Back to top | Tablatures and chords are parodies/interpretations of the original songs. You may use it for private study, scholarship, research or language learning purposes only
© 2014 AZChords.com Contact us | Privacy policy | DMCA | Add/correct tabs | Request tabs | Top 50 tabs