» » »

Maldita, Porque Tabs (ver.3)

Artists:  A B C D E F G H I J K L M N O P Q R S T U V W X Y Z # 

Porque Tabs (ver.3)

Maldita Tabs
Rating:
5/5 (8 votes)
Porque lessons Tabs too difficult? Try these video lessons and learn fast
                ...Hey!!!...I just want to share this to all the people who appreciate the song 
PORQUE by Maldita...I hope you'll enjoy it!!!...:]

Porque by Maldita

(This is the intro of the song in guitar tabs:)

INTRO:

Tuning:eBGDAE (Capo on 2nd Fret)

e|-----0h2p0-----0--2-----2--0----0--2-----2--------------------------------|
B|------------3-----3--T--3----3--3--3--T--3-----3--0-----------------------|
G|--2------------------A----------------A-----0-----------------------------|
D|---------------0-----P--0-------------P-----------------------------------|
A|--------------------------------------------------------------------------|
E|--------------------------------3--------3--------------------------------|
               D                  G

e|-----------------0-----------0-----0--------------------------------------|
B|--------------3-----3--0--2--2--T--2--------------------------------------|
G|-----------0--------------2-----A-----------------------------------------|
D|--------2-----------------------P-----------------------------------------|
A|-----2--------------------0--------0--------------------------------------|
E|--0-----------------------------------------------------------------------|
    Em7                     A

e|-----0h2p0-----0--2-----2--0-----0--2-----2--2--3--3/5--------------------|
B|------------3--3--3--T--3-----3--3--3--T--3-------------------------------|
G|--2------------------A-----------------A----------------------------------|
D|---------------0-----P--0--------------P----------------------------------|
A|--------------------------------------------------------------------------|
E|---------------------------------3--------3-------------------------------|
                 D                 G

e|-----------------0-----------------5--------------------------------------|
B|--------------3-----3--0--2-----2-----------------------------------------|
G|-----------0--------------2--2--------------------------------------------|
D|--------2-----------------------------------------------------------------|
A|-----2--------------------0-----------------------------------------------|
E|--0-----------------------------------------------------------------------|
    Em7                     A



(This is the chords of Porque:)

Standard tuning

but on the 2nd capo

VERSE 1:

   D              G
Tulala lang sa’king kwarto
    Em              A
At nagmu-muni-muni
 D               G
Ang tanong sa’king sarili
Em                A
Sa’n ako nagkamali



Refrain:
    Bm          A             G
Bakit sa’yo pa nagkagusto
  Em          F#m      G
Parang bula ika’y naglaho



Chorus1:
        D               Em
Porque contigo yo ya eskuhi?
          F#m          G
Ahora mi corazon ta supri
             D             Em
Bien simple lang iyo ta pidi
        F#m        G
Era cinti tu el cosa yo ya cinti
D           Em            F#m
Ta pidi milagro bira'l chempo
         G          D
El mali ase derecho
          Em         F#m
Na dimio reso ta pidi yo
      G                 D G Bm A
Era ulvida yo contigo


VERSE 2:

      D             G
Ang lahat ay binigay ko
        Em        A
Ngayon ay sising-sisi
       D           G
Sobra sobra ang parusa
         Em        A
Di alam kung kaya pa


(Repeat Refrain)

Bridge:
Em          F#m
Wag nang lumapit
         G                A           Em
At tumawag pa at baka masampal lang kita
       F#m
Di babalikan
       G
Magsisi ka man
       A
Ako ay lisanin

Chorus2:
          D              Em
Porque contigo yo ya iskuji
          F#m           G
Aura mi corazon ta supri
            D              Em
Bien simple lang iyo ta pidi
        F#m       G        B  F#m
Era cinti tu el cosa yo ya cinti


Repeat Chorus (2nd fret higher E-F#m-G#m-A)

Chorus3:
         E               F#m
Bakit ikaw pa ang napili
         Abm            A
Ngayon ang puso ko ay sawi
         E               F#m
Kay simple lang ng aking hiling
         Abm            A
Na madama mo rin ang pait at pighati
E           F#m
Sana’y magmilagro
  Abm
Mabalik ko
            A
Mali ay maiderecho
E            F#m           Abm
Pinagdarasal ko sa’king puso
     A
Na mabura na sa isip ko.



(This is the guitar tab of the whole song:)
Verse:
e|-----0--------0-----------2--------2--------------------------------------|
B|--3-----T--3-----T-----3-----T--3-----------------------------------------|
G|--------A--------A-----------A--------------------------------------------|
D|--0-----P--0-----P-----------P--------------------------------------------|
A|--------------------------------------------------------------------------|
E|--------------------0--3--------3-----------------------------------------|
    D                    G

e|--------0--------0-----------0--------0-----------------------------------|
B|-----3-----T--3-----T-----2-----T--2--------------------------------------|
G|-----------A--------A-----2-----A--2--------------------------------------|
D|-----------P--------P-----------P-----------------------------------------|
A|--------------------------0--------0--------------------------------------|
E|--3--0--------0--------0--------------------------------------------------|
       Em7                  A

Play verse 2 times pero sa last time yung sa 'A' part magiging..
e|--------0--------0-----------0-----0--------------------------------------|
B|-----3-----T--3-----T-----2-----T--2--T--2--2-----------------------------|
G|-----------A--------A-----2-----A--2--A--2--2-----------------------------|
D|-----------P--------P-----------P-----P-----------------------------------|
A|--------------------------0--------0--------------------------------------|
E|--3--0--------0--------0--------------------------------------------------|
                            A

Refrain:
e|-----0--------0--------0--------0--------2--------2--------2--------2-----|
B|--3-----T--3-----T--2-----T--2-----T--3-----T--3-----T--3-----T--3-----T--|
G|--------A--------A--------A--------A--------A--------A--------A--------A--|
D|--------P--------P--------P--------P--------P--------P--------P--------P--|
A|--2--------2--------0--------0--------------------------------------------|
E|--------------------------------------3--------3--------3--------3--------|
    Bm                A                 G

e|-----0--------0--------0--------0--------2--------2-----2-----------------|
B|--3-----T--3-----T--2-----T--2-----T--3-----T--3-----T--3--3--------------|
G|--------A--------A--------A--------A--------A--------A--------0-----------|
D|--------P--------P--------P--------P--------P--------P-----------0--------|
A|--------------------------------------------------------------------------|
E|--0--------0--------2--------2--------3--------3--------3-----------------|
    Em7               F#m               G

Chorus: Play this part 2 times, from "Porque contigo.." up to "..yo ya cinti"
e|-----2--------2--------2--------2--------0--------0--------3--------3-----|
B|--3-----T--3-----T--3-----T--3-----T--2-----T--2-----T--3-----T--3-----T--|
G|--------A--------A--------A--------A--------A--------A--------A--------A--|
D|--0-----P--0-----P--------P--------P--------P--------P--------P--------P--|
A|--------------------------------------------------------------------------|
E|--------------------0--------0--------2--------2--------3--------3--------|
    D                 Em7               F#m               G

Then this part, from "Ta pi di.." 'until "..ulvida yo contigo"
e|-----0--------0--------0--------0--------0--------0--------3--------3-----|
B|--3-----T--3-----T--3-----T--3-----T--2-----T--2-----T--3-----T--3-----T--|
G|--------A--------A--------A--------A--------A--------A--------A--------A--|
D|--0-----P--0-----P--------P--------P--------P--------P--------P--------P--|
A|--------------------------------------------------------------------------|
E|--------------------0--------0--------2--------2--------3--------3--------|
    D                 Em7               F#m               G

e|-----0--------0--------0--------0--------0--------0-----3-----------------|
B|--3-----T--3-----T--3-----T--3-----T--2-----T--2-----T--3-----------------|
G|--------A--------A--------A--------A--------A--------A--------------------|
D|--0-----P--0-----P--------P--------P--------P--------P--------------------|
A|--------------------------------------------------------------------------|
E|--------------------0--------0--------2--------2--------3-----------------|
    D                 Em7               F#m               G

Solo:
e|--0--2-----2--0-----0--2-----2--2--3--3/5---------------------------------|
B|--3--3--T--3-----3--3--3--T--3--------------------------------------------|
G|--------A-----------------A-----------------------------------------------|
D|--0-----P--0--------------P-----------------------------------------------|
A|--------------------------------------------------------------------------|
E|--------------------3--------3--------------------------------------------|
    D                 G

e|--------------0--------------------5--------------------------------------|
B|-----------------3--------2-----2-----------------------------------------|
G|-----------0--------0-----2--2--------------------------------------------|
D|--------2--------------2--------------------------------------------------|
A|-----2--------------------0-----------------------------------------------|
E|--0-----------------------------------------------------------------------|
    Em7                     A


Bridge:
e|-----0--------0--------0--------0--------2--------2--------0--------0-----|
B|--3-----T--3-----T--2-----T--2-----T--3-----T--3-----T--2-----T--2-----T--|
G|--------A--------A--------A--------A--------A--------A--------A--------A--|
D|--------P--------P--------P--------P--------P--------P--------P--------P--|
A|--------------------------------------------------------0--------0--------|
E|--0--------0--------2--------2--------3--------3--------------------------|
    Em7               F#m               G                 A

e|-----0--------0--------0--------0--------2--------2-----0-----------------|
B|--3-----T--3-----T--2-----T--2-----T--3-----T--3-----T--2-----------------|
G|--------A--------A--------A--------A--------A--------A--------------------|
D|--------P--------P--------P--------P--------P--------P--------------------|
A|--------------------------------------------------------0-----------------|
E|--0--------0--------2--------2--------3--------3--------------------------|
    Em7               F#m               G                 A
            

comments powered by Disqus
↑ Back to top | Maldita Tabs for Porque. Lyrics for acoustic guitar and electric guitar. Tablatures and chords are parodies/interpretations of the original songs. You may use it for private study, scholarship, research or language learning purposes only