>
 >
Devil And The Angel

Devil And The Angel Guitar Tabs

Malcolm Middleton - Devil And The Angel chords, tabs, tablatures, lyrics

Guitar lessons | Add/correct | Request | Top 50 tabs Artists:  A B C D E F G H I J K L M N O P Q R S T U V W X Y Z 0-9

Devil And The Angel Guitar Tabs – Malcolm Middleton

CD, Sheet music, Poster

Do you like Devil And The Angel? Share with your friends now
Tabs
___________________________


This is my first tab ever

It's quite easy to learn. There is minor variations in each verse,
so I chose to tab to whole song. Enjoy


Chords:

 c | Fmaj7 |  G* | Am7 | A11 | Dm9
-----------------------------------
 0 |   0   |  3  |  0  |  0  |  0
 1 |   1   |  1  |  1  |  0  |  1
 0 |   2   |  0  |  0  |  0  |  2
 2 |   3   |  0  |  2  |  0  |  0
 3 |   0   |  2  |  0  |  0  |  x
 x |   x   |  3  |  x  |  x  |  x

*a little modification to the G


Preintro

 C
-----|
-----|
---0-|
-2---|
-----|
-----|

Intro

 C                               Fmaj7
-----------------------------------------------------------------|
-----1-----------1-----------1-------1-----------1-----------1---|
---0-------0---0-------0---0---0---2-------2---2-------2---2---2-|
-2-------2---2-------2---2-------3-------3---3-------3---3-------|
-------3-----------3-------------------0-----------0-------------|
-----------------------------------------------------------------|

 C                               G
-------------------------------------------------3---------------|
-----1---------------1---------------------------------1-----1---|
---0-------0---0---0-------0---------0-----0---0---------------0-|
-2-------2---2---2-------2-----2---0-----0-----------0-----0-----|
-------3---------------3-----3---------2-----2-----2-----2-------|
---------------------------------3-------------------------------|

 C                               Fmaj7
-----------------------------------------------------------------|
-----1-----------1-----------1-------1-----------1-----------1---|
---0-------0---0-------0---0---0---2-------2---2-------2---2---2-|
-2-------2---2-------2---2-------3-------3---3-------3---3-------|
-------3-----------3-------------------0-----------0-------------|
-----------------------------------------------------------------|


--------------------------------|
----1-----------1---------------|
--2-------2---2-------2-----2---|
3-------3---3-------3-----3---3-|
------0-----------0-----0-------|
--------------------------------|


1st dream

 C                               Fmaj7
-----------------------------------------------------------------|
-----1-----------1-----------1-------1-----------1-----------1---|
---0-------0---0-------0---0---0---2-------2---2-------2---2---2-|
-2-------2---2-------2---2-------3-------3---3-------3---3-------|
-------3-----------3-------------------0-----------0-------------|
-----------------------------------------------------------------|

 C                               G
-------------------------------------------------3---------------|
-----1---------------1---------------------------------1-----1---|
---0-------0---0---0-------0---------0-----0---0---------------0-|
-2-------2---2---2-------2-----2---0-----0-----------0-----0-----|
-------3---------------3-----3---------2-----2-----2-----2-------|
---------------------------------3-------------------------------|

 C                               Fmaj7
-----------------------------------------------------------------|
-----1-----------1-----------1-------1-----------1-----------1---|
---0-------0---0-------0---0---0---2-------2---2-------2---2---2-|
-2-------2---2-------2---2-------3-------3---3-------3---3-------|
-------3-----------3-------------------0-----------0-------------|
-----------------------------------------------------------------|

 Am7                             A11
-----------------------------------------------------------------|
-----1---------------1---------------0-----0-----0-----0-----0---|
---0-------0---0---0-------0---0---0-----0-----0-----0-----0---0-|
-2-------2---2---2-------2---2---0-----0-----0-----0-------------|
-------0---------------0-----------------------------------------|
-----------------------------------------------------------------|

 Fmaj7   Am7   A11               Fmaj7   Am7   A11
-----------------------------------------------------------------|
-----1-------1-----0-----0-----0-----1-------1-----0-----0-----0-|
---2---2---0-----0-----0-----0-----2---2---0-----0-----0-----0---|
-3-------2-----0-----0-----0-----3-------2-----0-----0-----0-----|
-----------------------------------------------------------------|
-----------------------------------------------------------------|

 Fmaj7   Am7   A11
----------------------|
-----1-------1-----0--|
---2---2---0-----0----| (short brake)
-3-------2-----0------|
----------------------|
----------------------|

 C
---------------------------------------------------|
---------------------------------------------------|
-----0-----0---------0-----0---------0-----0---0---|
---2-----2-----2---2-----2-----2---2-----2---2-----|
-3-----3---------3-----3---------3-----3---------3-|
---------------------------------------------------|


1st morning

 C                               Fmaj7
-----------------------------------------------------------------|
-----1-----------1-----------1-------1-----------1-----------1---|
---0-------0---0-------0---0---0---2-------2---2-------2---2---2-|
-2-------2---2-------2---2-------3-------3---3-------3---3-------|
-------3-----------3-------------------0-----------0-------------|
-----------------------------------------------------------------|

 C                               G
-------------------------------------------------3---------------|
-----1---------------1---------------------------------1---------|
---0-------0---0---0-------0---0-----0-----0---0-------------0---|
-2-------2---2---2-------2---2-----0-----0-----------0-----0---0-|
-------3---------------3---------------2-----2-----2-----2-------|
---------------------------------3-------------------------------|

 C                               Fmaj7
-----------------------------------------------------------------|
-----1-----------1-----------1-------1-----------1-----------1---|
---0-------0---0-------0---0---0---2-------2---2-------2---2---2-|
-2-------2---2-------2---2-------3-------3---3-------3---3-------|
-------3-----------3-------------------0-----------0-------------|
-----------------------------------------------------------------|

 Am7                             A11
-----------------------------------------------------------------|
-----1---------------1---------------0-----0-----0-----0-----0---|
---0-------0---0---0-------0---0---0-----0-----0-----0-----0---0-|
-2-------2---2---2-------2---2---0-----0-----0-----0-------------|
-------0---------------0-----------------------------------------|
-----------------------------------------------------------------|

 Fmaj7   Am7   A11               Fmaj7   Am7   A11
-----------------------------------------------------------------|
-----1-------1-----0-----0-----0-----1-------1-----0-----0-----0-|
---2---2---0-----0-----0-----0-----2---2---0-----0-----0-----0---|
-3-------2-----0-----0-----0-----3-------2-----0-----0-----0-----|
-----------------------------------------------------------------|
-----------------------------------------------------------------|

 Fmaj7   Am7   A11                C
----------------------------|
-----1-------1-----0-----0--|
---2---2---0-----0-----0----|
-3-------2-----0-----0------| (short brake)
----------------------------|
----------------------------|

 C
------------------------------------------------------|
------------------------------------------------------|
--------0-----0---------0-----0---------0-----0---0---|
-2----2-----2-----0---2-----2-----2---2-----2---2-----|
----3-----3-----3---3-----3-----3---3-----3---------3-|
------------------------------------------------------|


2nd dream

 C                               Fmaj7
-----------------------------------------------------------------|
-----1-----------1-----------1-------1-----------1-----------1---|
---0-------0---0-------0---0---0---2-------2---2-------2---2---2-|
-2-------2---2-------2---2-------3-------3---3-------3---3-------|
-------3-----------3-------------------0-----------0-------------|
-----------------------------------------------------------------|

 C                               G
-------------------------------------------------3---------------|
-----1---------------1---------------------------------1---------|
---0-------0---0---0-------0---0-----0-----0---0-------------0---|
-2-------2---2---2-------2---2-----0-----0-----------0-----0---0-|
-------3---------------3---------------2-----2-----2-----2-------|
---------------------------------3-------------------------------|

 C                               Fmaj7
-----------------------------------------------------------------|
-----1-----------1-----------1-------1-----------1-----------1---|
---0-------0---0-------0---0---0---2-------2---2-------2---2---2-|
-2-------2---2-------2---2-------3-------3---3-------3---3-------|
-------3-----------3-------------------0-----------0-------------|
-----------------------------------------------------------------|

 Am7                               A11
-----------------------------------------------------------------|
-----1---------------1---------------0-----0-----0-----0-----0---|
---0-------0---0---0-------0---0---------0-----0-----0-----0---0-|
-2-------2---2---2-------2---2---2-0---0-----0-----0-----0-------|
-------0---------------0-----------------------------------------|
-----------------------------------------------------------------|

 Fmaj7   Am7   A11               Fmaj7   Am7   A11
-----------------------------------------------------------------|
-----1-------1-----0-----0-----0-----1-------1-----0-----0-----0-|
---2---2---0-----0-----0-----0-----2---2---0-----0-----0-----0---|
-3-------2-----0-----0-----0-----3-------2-----0-----0-----0-----|
-----------------------------------------------------------------|
-----------------------------------------------------------------|

 Fmaj7   Am7   A11
----------------------------------|
-----1-------1-----0-----0-----0--|
---2---2---0-----0-----0-----0----|
-3-------2-----0-----0-----0------|
----------------------------------|
----------------------------------|

 C
-----------------------------------------------------------------|
-----------------------------------------------------------1-----|
-------0-----0---------0-----0-------0-----0---0-----0-----0-----|
-2---2-----2-----2---2-----2-----222-----2---2-----2-----2-----2-|
---3-----3-----3---3-----3-----3-------3---------3-----3-----3---|
-----------------------------------------------------------------|

Solo
(The rythm in this solopart was difficult to tab, but if you have listened to the song 
you'll figure. no problemo)

 Fmaj7           Dm9                             A11
-----------------------------------------------------------------|
-----------1---1-----1-----1---------1-----1---------0-----0-----|
-----------2---2---2-2---2-2---2---2-2---2-2---2---0-0---0-0---0-|
-3-3---3-----3---0-----0-----0---0-----0-----0---0-----0-----0---|
-----------------------------------------------------------------|
-----------------------------------------------------------------|

 Fmaj7           Dm9                             A11
-----------------------------------------------------------------|
-----1-----1---------1-----1---------1-----1---------0-----0-----|
-----2-----2-------2-2---2-2---2---2-2---2-2---2---0-0---0-0---0-|
-3-3---3-3---3-3-0-----0-----0---0-----0-----0---0-----0-----0---|
-----------------------------------------------------------------|
-----------------------------------------------------------------|

 ?(not sure which chord to hold. choose what you feel works for you)
-------------------------------------------------------------|
-----0h1-0---------0--h1-0-----------0h1-0-------0h1-3-1-0---|
-----------2-----0---------0---0-----------2---------------0-|
-3-3---------0-2-------------2---3-3---------2---------------|
---------------------0-------------------------0-------------|
-------------------------------------------------------------|

                             Fmaj7   Am7   A11         (fading out)
-------------------------------------------------------------------|
-----0h1-0-------0h1-0-----------1-------1-----0-----0-----0-----0-|
-----------2-----------0---0---2---2---0-----0-----0-----0-----0---|
-3-3---------2-----------2---3-------2-----0-----0-----0-----0-----|
---------------0---------------------------------------------------|
-------------------------------------------------------------------|

       C
-------------------------------------------------------------|
-----0-------------------------------------------------------|
---0-----0-----0-----0---------0-----0---------0-----0---0---|
-0-----2-----2-----2-----2---2-----2-----2---2-----2---2-----|
-----------3-----3-----3---3-----3-----3---3-----3---------3-|
-------------------------------------------------------------|


2nd morning

 C                               Fmaj7
-----------------------------------------------------------------|
-----1-----------1-----------1-------1-----------1-----------1---|
---0-------0---0-------0---0---0---2-------2---2-------2---2---2-|
-2-------2---2-------2---2-------3-------3---3-------3---3-------|
-------3-----------3-------------------0-----------0-------------|
-----------------------------------------------------------------|

 C                               G
-------------------------------------------------3---------------|
-----1---------------1---------------------------------1-----1---|
---0-------0---0---0-------0---0-----0-----0---0---------------0-|
-2-------2---2---2-------2---2-----0-----0-----------0-----0-----|
-------3---------------3---------------2-----2-----2-----2-------|
---------------------------------3-------------------------------|

 C                               Fmaj7
-----------------------------------------------------------------|
-----1-----------1-----------1-------1-----------1-----------1---|
---0-------0---0-------0---0---0---2-------2---2-------2---2---2-|
-2-------2---2-------2---2-------3-------3---3-------3---3-------|
-------3-----------3-------------------0-----------0-------------|
-----------------------------------------------------------------|

 Am7                               A11
-----------------------------------------------------------------|
-----1---------------1-----1---------0-----0-----0-----0-----0---|
---0-------0---0---0-----0-----0---------0-----0-----0-----0---0-|
-2-------2---2---2-----2-----2---2-0---0-----0-----0-----0-------|
-------0---------------------------------------------------------|
-----------------------------------------------------------------|

 Fmaj7   Am7   A11               Fmaj7   Am7   A11
-----------------------------------------------------------------|
-----1-------1-----0-----0-----0-----1-------1-----0-----0-----0-|
---2---2---0-----0-----0-----0-----2---2---0-----0-----0-----0---|
-3-------2-----0-----0-----0-----3-------2-----0-----0-----0-----|
-----------------------------------------------------------------|
-----------------------------------------------------------------|

 Fmaj7   Am7   A11               Fmaj7   Am7   A11
-----------------------------------------------------------------|
-----1-------1-----0-----0-----0-----1-------1-----0-----0-----0-|
---2---2---0-----0-----0-----0-----2---2---0-----0-----0-----0---|
-3-------2-----0-----0-----0-----3-------2-----0-----0-----0-----|
-----------------------------------------------------------------|
-----------------------------------------------------------------|

 Fmaj7   Am7   A11               Fmaj7   Am7   A11
-----------------------------------------------------------------|
-----1-------1-----0-----0-----0-----1-------1-----0-----0-----0-|
---2---2---0-----0-----0-----0-----2---2---0-----0-----0-----0---|
-3-------2-----0-----0-----0-----3-------2-----0-----0-----0-----|
-----------------------------------------------------------------|
-----------------------------------------------------------------|


-------------------|
-----0-----0-----0-|
---0-----0-----0---|
-0-----0-----0-----|
-------------------|
-------------------|

 C
-------------------------------------------------------000--|
-------------------------------------------------1-1---111--|
-------0-----0---------0-----0---------0-----0-----0---000--|
-2---2-----2-----2---2-----2-----2---2-----2---2---2---222--|
---3-----3-----3---3-----3-----3---3-----3-------------333--|
-------------------------------------------------------xxx--|

                                                          The end





Comments


Popular Malcolm Middleton tabs & chords
Blue Plastic Bags Chords
Choir Chords
A Brighter Beat 1 Tabs
Birdwatcher Tabs
Somebody Loves You Tabs
Speed On The M9 Tabs
Blue Plastic Bags Ukulele
Crappo The Clown Ukulele
Hey You Ukulele
Love Comes In Waves Ukulele


Song lyrics



↑ Back to top | Tablatures and chords are parodies/interpretations of the original songs. You may use it for private study, scholarship, research or language learning purposes only
© 2014 AZChords.com Contact us | Privacy policy | DMCA | Add/correct tabs | Request tabs | Top 50 tabs