» » »

Malcolm Middleton, Birdwatcher Tabs (ver.1)

Artists:  A B C D E F G H I J K L M N O P Q R S T U V W X Y Z # 

Birdwatcher Tabs (ver.1)

Malcolm Middleton Tabs
Rating:
0/5 (0 votes)
Birdwatcher lessons Tabs too difficult? Try these video lessons and learn fast
                birdwatcher
person to be arsed to type it up:joe walker
sunday nov 21 2004


TUNE G STRING DOWN TO F

ACOUSTIC GUITAR
e-------------------------------------------------------------------|
b-------------------------------------------------------------------|
f---------5--4-------4---2-------0------0---------------------------|
d------(0)----(0)------0---0--------0-----0-------------------------|
a-----5----5------3-----------1-------------1/----3-----------------| THIS IS NOT
E-------------------------------------------------------------------| PERFECT JUST
                                                                     A BLUEPRINT OF WAT
                                                                     NOTES TO PLAY
ACOUSTIC FILLS(DUBS)
e-------------8------------------------------------------------------|
b-----5--6----------------------------------5--6--3------5--6-5------|3/5/3(SILDE)
f-------------------------5----7-------------------------------------|
d-------------------------------------8------------------------------|
a--------------------------------------------------------------------|
E--------------------------------------------------------------------|


ELECTRIC GUITAR 2:35(?)
e----------8--------------------10-/--8------/6/5------/(3)--------------|
b------------------------------------------------------------------------|
f------------------------------------------------------------------------|
d------------------------------------------------------------------------|
a------------------------------------------------------------------------|
E------------------------------------------------------------------------|

e------3--5---6----5---1-----10---8---10---5---5--6---8-------------|
b-------------------------------------------------------------------|
f-------------------------------------------------------------------|
d-------------------------------------------------------------------|
a-------------------------------------------------------------------|
E-------------------------------------------------------------------|

e-----10/-----1--------6---5---10--8------10--/--5---6--/--1--------|
b-------------------------------------------------------------------|
f-------------------------------------------------------------------|
d-------------------------------------------------------------------|
a-------------------------------------------------------------------|
E-------------------------------------------------------------------|


NOT THAT WAS'NT TO BAD WAS IT.... MORE sh*tTY ARAB STRAP TABS R UP AS WELL
            

comments powered by Disqus
↑ Back to top | Malcolm Middleton Tabs for Birdwatcher. Lyrics for acoustic guitar and electric guitar. Tablatures and chords are parodies/interpretations of the original songs. You may use it for private study, scholarship, research or language learning purposes only