» » »

A Brighter Beat Tabs (ver.2)

Artists:  A B C D E F G H I J K L M N O P Q R S T U V W X Y Z # 

A Brighter Beat Tabs (ver.2)

Malcolm Middleton
Rating:
4/5 (1 vote)

Hard to play? Try these video lessons and learn fast.
                1/12/2006

Another cracker of a song from malcky,

 capo 4th!!!!!!!!!!!!!!!!!!!!!!!!!!!!!!!!!!!!!!!!!!!!!

         Aminor
e---------------------------------------------------0--------------------|
B--------------------1-------2----------1 /h/--3-------------------------|
G------------2-----------------------------------------------------------|
D--------2-------2-------2-----------------------------------------------|
A------0-------------------------0---------------------------------------|
E------------------------------------------------------------------------|


         Cadd9                            Cmajor
e----------------------------------------------------------------0-----|
B--------------------------------0--------------------1/h/ 0-----------|
G------------------------0---------------------------------------------|
D---------------2-----------------------------2------------------------|
A----------3----------------------------3------------------------------|
E----------------------------------------------------------------------|

    Gadd9
e--------------------------------------0-------------------------------|
B----------------------------------------------------------------------|
G-----------------------------0----------------------------------------|
D-------------------------0--------------------------------------------|
A------------------2---------------------------------------------------|
E-----------3----------------------------------------------------------|

 Dminor

e-------------------------1---------0/h/1-----------------------------|
B------------------3--------------------------------------------------|
G------------2--------------------------------------------------------|
D------0--------------------------------------------------------------|
A---------------------------------------------------------------------|
E---------------------------------------------------------------------|

sorry for the lazy tab but i've only just heard the song and it's not that important, 
pick through the chords...

Slán.
            
Hard to play? Try these video lessons and learn fast. | Correct




comments powered by Disqus
↑ Back to top | Tablatures and chords are parodies/interpretations of the original songs. You may use it for private study, scholarship, research or language learning purposes only