» » »

Making April, These Are The Nights Tabs (ver.2)

Artists:  A B C D E F G H I J K L M N O P Q R S T U V W X Y Z # 

These Are The Nights Tabs (ver.2)

Making April Tabs
Rating:
5/5 (5 votes)
These Are The Nights lessons Tabs too difficult? Try these video lessons and learn fast
                -------------------------------------------------------------------------------
                             THESE ARE THE NIGHTS - Making April
-------------------------------------------------------------------------------

Well, I noticed a while ago that there wasn't a tab for this song and that made me a bit
cause I'm still a beginner, so I didn't really think I'd be able to figure anything out
 Anyway, I stumbled upon what I think is right but this is my first tab so any 
comments, etc. you have would be great!  Btw...there's a 2nd guitar part for this but
isn't much to it, just some harmonization and what not so I won't tab it...not yet at least.

Tuning:  Standard

Intro
e|---------------------------------------------------------|
B|---------------------------------------------------------|
G|-4-4444-4-4444-4-4444-4-4444-----------------------------|
D|-4-4444-4-4444-4-4444-4-4444-4-4444-4-4444-4-4444-4-4444-|
A|-2-2222-2-2222-2-2222-2-2222-4-4444-4-4444-4-4444-4-4444-|
E|-----------------------------2-2222-2-2222-2-2222-2-2222-|

e|---------------------------------------------------------|
B|---------------------------------------------------------|
G|---------------------------------------------------------|
D|-6-6666-6-6666-6-6666-6-6666-2-2222-2-2222-2-2222-2-2222-|
A|-6-6666-6-6666-6-6666-6-6666-2-2222-2-2222-2-2222-2-2222-|
E|-4-4444-4-4444-4-4444-4-4444-0-0000-0-0000-0-0000-0-0000-|

Verse 1
e|---------------------------------------------------------|
B|---------------------------------------------------------|
G|-4-4444-4-4444-4-4444-4-4444-----------------------------|
D|-4-4444-4-4444-4-4444-4-4444-4-4444-4-4444-4-4444-4-4444-|
A|-2-2222-2-2222-2-2222-2-2222-4-4444-4-4444-4-4444-4-4444-|
E|-----------------------------2-2222-2-2222-2-2222-2-2222-|

e|---------------------------------------------------------|
B|---------------------------------------------------------|
G|---------------------------------------------------------|
D|-6-6666-6-6666-6-6666-6-6666-2-2222-2-2222-2-2222-2-2222-|
A|-6-6666-6-6666-6-6666-6-6666-2-2222-2-2222-2-2222-2-2222-|
E|-4-4444-4-4444-4-4444-4-4444-0-0000-0-0000-0-0000-0-0000-|

e|---------------------------------------------------------|
B|---------------------------------------------------------|
G|-4-4444-4-4444-4-4444-4-4444-----------------------------|
D|-4-4444-4-4444-4-4444-4-4444-4-4444-4-4444-4-4444-4-4444-|
A|-2-2222-2-2222-2-2222-2-2222-4-4444-4-4444-4-4444-4-4444-|
E|-----------------------------2-2222-2-2222-2-2222-2-2222-|

e|---------------------------------------------------------|
B|---------------------------------------------------------|
G|---------------------------------------------------------|
D|-6-6666-6-6666-6-6666-6-6666-2-2222-2-2222-2-2222-2-2222-|
A|-6-6666-6-6666-6-6666-6-6666-2-2222-2-2222-2-2222-2-2222-|
E|-4-4444-4-4444-4-4444-4-4444-0-0000-0-0000-0-0000-0-0000-|

Pre-Chorus
e|-----------------------------|
B|-----------------------------|
G|-----------------------------|
D|-5-5555-5-5555-4-4444-4-4444-|
A|-5-5555-5-5555-4-4444-4-4444-|
E|-3-3333-3-3333-2-2222-2-2222-|

Chorus
e|---------------------------------------------------------|
B|---------------------------------------------------------|
G|-4-4444-4-4444-4-4444-4-4444-----------------------------|
D|-4-4444-4-4444-4-4444-4-4444-2-2222-2-2222-2-2222-2-2222-|
A|-2-2222-2-2222-2-2222-2-2222-2-2222-2-2222-2-2222-2-2222-|
E|-----------------------------0-0000-0-0000-0-0000-0-0000-|

e|---------------------------------------------------------|
B|---------------------------------------------------------|
G|-4-4444-4-4444-4-4444-4-4444-----------------------------|
D|-4-4444-4-4444-4-4444-4-4444-4-4444-4-4444-4-4444-4-4444-|
A|-2-2222-2-2222-2-2222-2-2222-4-4444-4-4444-4-4444-4-4444-|
E|-----------------------------2-2222-2-2222-2-2222-2-2222-|

e|---------------------------------------------------------|
B|---------------------------------------------------------|
G|-4-4444-4-4444-4-4444-4-4444-----------------------------|
D|-4-4444-4-4444-4-4444-4-4444-2-2222-2-2222-2-2222-2-2222-|
A|-2-2222-2-2222-2-2222-2-2222-2-2222-2-2222-2-2222-2-2222-|
E|-----------------------------0-0000-0-0000-0-0000-0-0000-|

e|---------------------------------------------------------|
B|---------------------------------------------------------|
G|-4-4444-4-4444-4-4444-4-4444-----------------------------|
D|-4-4444-4-4444-4-4444-4-4444-4-4444-4-4444-4-4444-4-4444-|
A|-2-2222-2-2222-2-2222-2-2222-4-4444-4-4444-4-4444-4-4444-|
E|-----------------------------2-2222-2-2222-2-2222-2-2222-|

Interlude
e|----------------------------------------------------|
B|----------------------------------------------------|
G|----------------------------------------------------|
D|-66-6-66-4-4-22-2-22-2222--66-6-6664-4-22-2-22-2222-|
A|-66-6-66-4-4-22-2-22-2222--66-6-6664-4-22-2-22-2222-|
E|-44-4-44-2-2-00-0-00-0000--44-4-4442-2-00-0-00-0000-|

e|-----------------------------|
B|-----------------------------|
G|-----------------------------|
D|-4-4444-4-4444-4-4444-4-4444-|
A|-4-4444-4-4444-4-4444-4-4444-|
E|-2-2222-2-2222-2-2222-2-2222-|

Verse 2
e|---------------------------------------------------------|
B|---------------------------------------------------------|
G|-4-4444-4-4444-4-4444-4-4444-----------------------------|
D|-4-4444-4-4444-4-4444-4-4444-4-4444-4-4444-4-4444-4-4444-|
A|-2-2222-2-2222-2-2222-2-2222-4-4444-4-4444-4-4444-4-4444-|
E|-----------------------------2-2222-2-2222-2-2222-2-2222-|

e|---------------------------------------------------------|
B|---------------------------------------------------------|
G|---------------------------------------------------------|
D|-6-6666-6-6666-6-6666-6-6666-2-2222-2-2222-2-2222-2-2222-|
A|-6-6666-6-6666-6-6666-6-6666-2-2222-2-2222-2-2222-2-2222-|
E|-4-4444-4-4444-4-4444-4-4444-0-0000-0-0000-0-0000-0-0000-|

e|---------------------------------------------------------|
B|---------------------------------------------------------|
G|-4-4444-4-4444-4-4444-4-4444-----------------------------|
D|-4-4444-4-4444-4-4444-4-4444-4-4444-4-4444-4-4444-4-4444-|
A|-2-2222-2-2222-2-2222-2-2222-4-4444-4-4444-4-4444-4-4444-|
E|-----------------------------2-2222-2-2222-2-2222-2-2222-|

e|---------------------------------------------------------|
B|---------------------------------------------------------|
G|---------------------------------------------------------|
D|-6-6666-6-6666-6-6666-6-6666-2-2222-2-2222-2-2222-2-2222-|
A|-6-6666-6-6666-6-6666-6-6666-2-2222-2-2222-2-2222-2-2222-|
E|-4-4444-4-4444-4-4444-4-4444-0-0000-0-0000-0-0000-0-0000-|

Pre-Chorus
e|-----------------------------|
B|-----------------------------|
G|-----------------------------|
D|-5-5555-5-5555-4-4444-4-4444-|
A|-5-5555-5-5555-4-4444-4-4444-|
E|-3-3333-3-3333-2-2222-2-2222-|

Chorus
e|---------------------------------------------------------|
B|---------------------------------------------------------|
G|-4-4444-4-4444-4-4444-4-4444-----------------------------|
D|-4-4444-4-4444-4-4444-4-4444-2-2222-2-2222-2-2222-2-2222-|
A|-2-2222-2-2222-2-2222-2-2222-2-2222-2-2222-2-2222-2-2222-|
E|-----------------------------0-0000-0-0000-0-0000-0-0000-|

e|---------------------------------------------------------|
B|---------------------------------------------------------|
G|-4-4444-4-4444-4-4444-4-4444-----------------------------|
D|-4-4444-4-4444-4-4444-4-4444-4-4444-4-4444-4-4444-4-4444-|
A|-2-2222-2-2222-2-2222-2-2222-4-4444-4-4444-4-4444-4-4444-|
E|-----------------------------2-2222-2-2222-2-2222-2-2222-|

e|---------------------------------------------------------|
B|---------------------------------------------------------|
G|-4-4444-4-4444-4-4444-4-4444-----------------------------|
D|-4-4444-4-4444-4-4444-4-4444-2-2222-2-2222-2-2222-2-2222-|
A|-2-2222-2-2222-2-2222-2-2222-2-2222-2-2222-2-2222-2-2222-|
E|-----------------------------0-0000-0-0000-0-0000-0-0000-|

e|---------------------------------------------------------|
B|---------------------------------------------------------|
G|-4-4444-4-4444-4-4444-4-4444-----------------------------|
D|-4-4444-4-4444-4-4444-4-4444-4-4444-4-4444-4-4444-4-4444-|
A|-2-2222-2-2222-2-2222-2-2222-4-4444-4-4444-4-4444-4-4444-|
E|-----------------------------2-2222-2-2222-2-2222-2-2222-|

Ending
e|---------------------------------------------------------|
B|---------------------------------------------------------|
G|-4-4444-4-4444-------------------------------------------|
D|-4-4444-4-4444-2-2222-2-2222-4-4444-4-4444-4-4444-4-4444-|(x6)
A|-2-2222-2-2222-2-2222-2-2222-4-4444-4-4444-4-4444-4-4444-|
E|---------------0-0000-0-0000-2-2222-2-2222-2-2222-2-2222-|

e|---|
B|---|
G|-4-|
D|-4-|
A|-2-|
E|---|
            

comments powered by Disqus
↑ Back to top | Making April Tabs for These Are The Nights. Lyrics for acoustic guitar and electric guitar. Tablatures and chords are parodies/interpretations of the original songs. You may use it for private study, scholarship, research or language learning purposes only