>
 >
Roses And Butterflies

Roses And Butterflies Guitar Tabs

Making April - Roses And Butterflies chords, tabs, tablatures, lyrics

Guitar lessons | Add/correct | Request | Top 50 tabs Artists:  A B C D E F G H I J K L M N O P Q R S T U V W X Y Z 0-9

Roses And Butterflies Guitar Tabs – Making April

CD, Sheet music, Poster

Do you like Roses And Butterflies? Share with your friends now
ChordsTabsUkulele
Song Title-Roses and Butterflies
Album-Runaway world

(Pre-Chorus) (Repeat progression twice)

As the roses.............

Eb-------2----2----2----2--------------0-----0-----------0-----0----|
Bb-------2----2----2----2--------------0-----0-----------0-----0----|
Gb-------2----2----2----2--------------4-----4-----------4-----4----|
Db-------4----4----4----4--------------2-----2-----------4-----4----|
Ab-------4----4----4----4--------------4-----4-----------2-----2----|
Eb-------2----2----2----2--------------X-----X-----------X-----X----|
(Pre-Chorus) (Repeat progression twice)

And they are breaking............

Eb------0----0-----------0----0-----------0----0----0----0-------|
Bb------0----0-----------0----0-----------0----0----4----4-------|
Gb------4----4-----------2----2-----------4----4----4----4-------|
Db------2----2-----------2----2-----------4----4----4----4-------|
Ab------X----X-----------0----0-----------2----2----2----2-------|
Eb------4----4-----------X----X-----------X----X----X----X-------|

(Chorus)

Waste these nights for a while............

Eb------0----0---------0-----0---------0----0----0----0--------0----0----0----0-------0----0----0----0------|
Bb------0----0---------0-----0---------0----0----0----0--------0----0----0----0-------0----0----0----0------|
Gb------9----9---------9-----9---------4----4----4----4--------2----2----2----2-------4----4----4----4------|
Db------9----9---------9-----9---------2----2----2----2--------2----2----2----2-------4----4----4----4------|
Ab------7----7---------6-----6---------4----4----4----4--------0----0----0----0-------2----2----2----2------|
Eb------0----0---------X-----X---------X----X----X----X--------X----X----X----X-------X----X----X----X------|

(Chorus) (Chorus-End)

This is where my heart........                               As I read the
                                                             words....

Eb------0----0---------0-----0---------0----0----0----0---------2-----------0----------0-------|
Bb------0----0---------0-----0---------0----0----0----0---------2-----------0----------0-------|
Gb------9----9---------9-----9---------4----4----4----4---------2-----------2----------4-------|
Db------9----9---------9-----9---------2----2----2----2---------4-----------2----------4-------|
Ab------7----7---------6-----6---------4----4----4----4---------4-----------0----------2-------|
Eb------0----0---------X-----X---------X----X----X----X---------2-----------X----------X-------|

(Pre-Chorus) (Repeat progression twice)

I've been sleeping with..........

Eb------2----2----2----2--------------0-----0-----------0-----0------------|
Bb------2----2----2----2--------------0-----0-----------0-----0------------|
Gb------2----2----2----2--------------4-----4-----------4-----4------------|
Db------4----4----4----4--------------2-----2-----------4-----4------------|
Ab------4----4----4----4--------------4-----4-----------2-----2------------|
Eb------2----2----2----2--------------X-----X-----------X-----X------------|


(Pre-Chorus) (Repeat progression twice)

And now I'm waiting for your call.....

Eb------0----0-----------0----0-----------0----0----0----0-----------------|
Bb------0----0-----------0----0-----------0----0----4----4-----------------|
Gb------4----4-----------2----2-----------4----4----4----4-----------------|
Db------2----2-----------2----2-----------4----4----4----4-----------------|
Ab------X----X-----------0----0-----------2----2----2----2-----------------|
Eb------4----4-----------X----X-----------X----X----X----X-----------------|

(Chorus)

Waste these nights..........

Eb------0----0---------0-----0---------0----0----0----0--------0----0----0----0-------0----0----0----0-----------|
Bb------0----0---------0-----0---------0----0----0----0--------0----0----0----0-------0----0----0----0-----------|
Gb------9----9---------9-----9---------4----4----4----4--------2----2----2----2-------4----4----4----4-----------|
Db------9----9---------9-----9---------2----2----2----2--------2----2----2----2-------4----4----4----4-----------|
Ab------7----7---------6-----6---------4----4----4----4--------0----0----0----0-------2----2----2----2-----------|
Eb------0----0---------X-----X---------X----X----X----X--------X----X----X----X-------X----X----X----X-----------|

(Chorus) (Chorus-End)

This is where my heart........                                 As i hear the
                                                               words....

Eb------0----0---------0-----0---------0----0----0----0----------2-----------0----------0-------|
Bb------0----0---------0-----0---------0----0----0----0----------2-----------0----------0-------|
Gb------9----9---------9-----9---------4----4----4----4----------2-----------2----------4-------|
Db------9----9---------9-----9---------2----2----2----2----------4-----------2----------4-------|
Ab------7----7---------6-----6---------4----4----4----4----------4-----------0----------2-------|
Eb------0----0---------X-----X---------X----X----X----X----------2-----------X----------X-------|

(Piano Solo) (Repeat throughout piano solo)                (Solo end chord)

Eb------0----0-----------0----0-----------0----0----0----0---------------------2----------|
Bb------0----0-----------0----0-----------0----0----4----4---------------------2----------|
Gb------4----4-----------2----2-----------4----4----4----4---------------------2----------|
Db------2----2-----------2----2-----------4----4----4----4---------------------4----------|
Ab------X----X-----------0----0-----------2----2----2----2---------------------4----------|
Eb------4----4-----------X----X-----------X----X----X----X---------------------2----------|


(Build up) (Repeat progression twice)

Are we gonna make it through this fall......

Eb------X----X--------X-----X--------X-----X-----X-----X-----------------------------|
Bb------X----X--------X-----X--------X-----X-----X-----X-----------------------------|
Gb------X----X--------X-----X--------X-----X-----X-----X-----------------------------|
Db------X----X--------X-----X--------X-----X-----X-----X-----------------------------|
Ab------7----7--------7-----7--------9-----9-----9-----9-----------------------------|
Eb------4----4--------5-----5--------7-----7-----7-----7-----------------------------|

(Chorus)

Waste these nights..........

Eb------0----0---------0-----0---------0----0----0----0--------0----0----0----0-------0----0----0----0--------|
Bb------0----0---------0-----0---------0----0----0----0--------0----0----0----0-------0----0----0----0--------|
Gb------9----9---------9-----9---------4----4----4----4--------2----2----2----2-------4----4----4----4--------|
Db------9----9---------9-----9---------2----2----2----2--------2----2----2----2-------4----4----4----4--------|
Ab------7----7---------6-----6---------4----4----4----4--------0----0----0----0-------2----2----2----2--------|
Eb------0----0---------X-----X---------X----X----X----X--------X----X----X----X-------X----X----X----X--------|


(Chorus)

This is where my heart........

Eb------0----0---------0-----0---------0----0----0----0-----|
Bb------0----0---------0-----0---------0----0----0----0-----|
Gb------9----9---------9-----9---------4----4----4----4-----|
Db------9----9---------9-----9---------2----2----2----2-----|
Ab------7----7---------6-----6---------4----4----4----4-----|
Eb------0----0---------X-----X---------X----X----X----X-----|

(End)

I'm taken by your........                   I'll be waiting for this
                                            chance....

Eb------2----------0-----------0----------------2--------0--------0---------0------------------|
Bb------2----------0-----------0----------------2--------0--------0---------4------------------|
Gb------2----------4-----------2----------------2--------4--------2---------4------------------|
Db------4----------2-----------2----------------4--------2--------2---------4------------------|
Ab------4----------X-----------0----------------4--------X--------0---------2------------------|
Eb------2----------4-----------X----------------2--------4--------X---------X------------------|





Comments


Popular Making April tabs & chords
Bailey Chords
Driveway Chords
I Wrote This Song Chords
Roses And Butterflies Chords
Runaway World 2 Chords
Streetlights Chords
All Of Yours Ukulele
Chase You Down Ukulele
I Wrote This Song Ukulele
Streetlights Ukulele


Song lyrics



↑ Back to top | Tablatures and chords are parodies/interpretations of the original songs. You may use it for private study, scholarship, research or language learning purposes only
© 2014 AZChords.com Contact us | Privacy policy | DMCA | Add/correct tabs | Request tabs | Top 50 tabs