>
 >
I Wrote This Song

I Wrote This Song Guitar Tabs

Making April - I Wrote This Song chords, tabs, tablatures, lyrics

Guitar lessons | Add/correct | Request | Top 50 tabs Artists:  A B C D E F G H I J K L M N O P Q R S T U V W X Y Z 0-9

I Wrote This Song Guitar Tabs – Making April

CD, Sheet music, Poster

Do you like I Wrote This Song? Share with your friends now
ChordsTabsTabs v2Ukulele
"I Wrote This Song" by Making April

This version is 100% accurate. It's played in standard tuning with a capo on the third 
It's pretty simple and fun to sing along with. Although this guy sings like he was kicked 
the testicles at certain points and I can't reach quite that high but whatever. Have fun!


(Verse)

"When I first started writing this I swear my intentions were well..."

G----0----0---------3----3------------3----3----3----3-|
D----0----0---------3----3------------3----3----3----3-|
A#---0----0---------0----0------------0----0----0----0-|
F----2----2---------0----0------------X----X----X----X-|
C----2----2---------X----X------------3----3----3----3-|
G----0----0---------3----3------------X----X----X----X-|

(Pre-Chorus)

"That I can't sleep..."                                       "And I..."

G----X----X-----------3----3---------3----3----3----3----------X------|
D----3----3-----------3----3---------3----3----3----3----------3------|
A#---2----2-----------0----0---------0----0----0----0----------2------|
F----0----0-----------X----X---------X----X----X----X----------0------|
C----X----X-----------2----2---------3----3----3----3----------X------|
G----X----X-----------0----0---------X----X----X----X----------X------|


(Chorus)

"I wrote this song about you. Isn't that cliche of me to do?"


G------0----0------------3----3-----------X----X----X----X---|
D------0----0------------3----3-----------3----3----3----3---|
A#-----0----0------------0----0-----------2----2----2----2---|
F------2----2------------X----X-----------0----0----0----0---|
C------2----2------------3----3-----------X----X----X----X---|
G------0----0------------X----X-----------X----X----X----X---|


(Verse)

"Now I've watched these years disperse and still this verse lacks words..."

G-----0----0---------3----3--------3----3----3----3-|
D-----0----0---------3----3--------3----3----3----3-|
A#----0----0---------0----0--------0----0----0----0-|
F-----2----2---------0----0--------X----X----X----X-|
C-----2----2---------X----X--------3----3----3----3-|
G-----0----0---------3----3--------X----X----X----X-|

(Pre-Chorus)

"That I can't see..."                                         "And I..."

G----X----X-----------3----3---------3----3----3----3----------X---------|
D----3----3-----------3----3---------3----3----3----3----------3---------|
A#---2----2-----------0----0---------0----0----0----0----------2---------|
F----0----0-----------2----2---------X----X----X----X----------0---------|
C----X----X-----------X----X---------3----3----3----3----------X---------|
G----X----X-----------0----0---------X----X----X----3----------X---------|


(Chorus)

"I wrote this song about you. Isn't that cliche of me to do?"

G----0----0------------3----3-----------X----X----X----X---|
D----0----0------------3----3-----------3----3----3----3---|
A#---0----0------------0----0-----------2----2----2----2---|
F----2----2------------X----X-----------0----0----0----0---|
C----2----2------------3----3-----------X----X----X----X---|
G----0----0------------X----X-----------X----X----X----X---|

(Bridge)

G----0-------3-----------X----X----X----X---|
D----0-------3-----------3----3----3----3---|
A#---0-------0-----------2----2----2----2---|
F----2-------X-----------0----0----0----0---|
C----2-------3-----------X----X----X----X---|
G----0-------X-----------X----X----X----X---|


                                                                            "You're 
to know..."                                "To the world..."


G---0--0--0--0----3--3--3--3----3--3--3--3----X--X--X--X----3--|
D---0--0--0--0----3--3--3--3----3--3--3--3----3--3--3--3----3--|
A#--0--0--0--0----0--0--0--0----0--0--0--0----2--2--2--2----0--|
F---2--2--2--2----X--X--X--X----0--0--0--0----0--0--0--0----X--|
C---2--2--2--2----3--3--3--3----X--X--X--X----X--X--X--X----3--|
G---0--0--0--0----X--X--X--X----3--3--3--3----X--X--X--X----X--|


"Yeah..."

G--------X---------|
D--------3---------|
A#-------2---------|
F--------0---------|
C--------X---------|
G--------X---------|

(Chorus)

"I wrote this song about you. Isn't that cliche of me to do?..."

G-------0----0------------3----3-----------X----X----X----X---|
D-------0----0------------3----3-----------3----3----3----3---|
A#------0----0------------0----0-----------2----2----2----2---|
F-------2----2------------X----X-----------0----0----0----0---|
C-------2----2------------3----3-----------X----X----X----X---|
G-------0----0------------X----X-----------X----X----X----X---|


(Ending)


"No I wouldn't go that far..."


G-----0----0----------3----3-----------X----X----X----X---------0--|
D-----0----0----------3----3-----------3----3----3----3---------0--|
A#----0----0----------0----0-----------2----2----2----2---------2--|
F-----2----2----------X----X-----------0----0----0----0---------2--|
C-----2----2----------3----3-----------X----X----X----X---------0--|
G-----0----0----------X----X-----------X----X----X----X---------0--|





Comments


Popular Making April tabs & chords
Bailey Chords
Driveway Chords
Driveway 1 Chords
I Wrote This Song Chords
Roses And Butterflies Chords
Streetlights Chords
These Are The Nights Chords
So Bad Tabs
Driveway Ukulele
Runaway World Ukulele


Song lyrics



↑ Back to top | Tablatures and chords are parodies/interpretations of the original songs. You may use it for private study, scholarship, research or language learning purposes only
© 2014 AZChords.com Contact us | Privacy policy | DMCA | Add/correct tabs | Request tabs | Top 50 tabs