» » »

Major Accident, Respectable Tabs (ver.1)

Artists:  A B C D E F G H I J K L M N O P Q R S T U V W X Y Z # 

Respectable Tabs (ver.1)

Major Accident Tabs
 Rating:
4/5 (4 votes)
Respectable lessons Tabs too difficult? Try these video lessons and learn fast
1
                Band: Major Accident



Intro

e---------------------------------------------------------------------|
B-7-7-7-5-5-7-7-7-8-8-7-7-5-7-----------------------------------------|
G---------------------------------------------------------------------|
D---------------------------------------------------------------------|
A---------------------------------------------------------------------|
E---------------------------------------------------------------------|


e---------------------------------------------------------------------|
B--3--2--0--------3--2--0--------8--7--5-------8--7--5----------------|
G-----------2--------------2--------------7-------------7-------------|
D---------------------------------------------------------------------|
A---------------------------------------------------------------------|
E---------------------------------------------------------------------|

Verse

e---------------------------------------------------------------------|
B---7-7-7-7-7-7-7-7-7-7-----------------------------------------------|
G-----------------------7-7-7-7-7-7-7-7-7-7-7-------------------------|
D---------------------------------------------------------------------|
A---------------------------------------------------------------------|
E---------------------------------------------------------------------|

e---------------------------------------------------------------------|
B---------------------------------------------------------------------|
G---7--7-x-7-7--7--7-x-7-7--------------------------------------------|
D---7--7-x-7-7--7--7-x-7-7--------------------------------------------|
A---5--5-x-5-5--5--5-x-5-5--------------------------------------------|
E---------------------------------------------------------------------|

Chorus

e---------------------------------------------------------------------|
B---------------------------------------------------------------------|
G---7------7---------7------------------------------------------------|
D---7------7---------7------------------------------------------------|
A---5------5---------5------------------------------------------------|
E---------------------------------------------------------------------|

Bridge

e---------------------------------------------------------------------|
B--14--12h14p12-10-----------10---12h14p12--10------------------------|
G-------------------11----11--------------------9---------------------|
D---------------------------------------------------------------------|
A---------------------------------------------------------------------|
E---------------------------------------------------------------------|

Solo

e---------------------------------------------------------------------|
B--13b-13b-13b-13b-13bp11--11----11----------10-12\14\15\17/15/14/12--|
G-----------------------------12----12-12~----------------------------|
D---------------------------------------------------------------------|
A---------------------------------------------------------------------|
E---------------------------------------------------------------------|


e---------------------------------------------------------------------|
B--10-10~---14-12-10------14-12-10------11----11----------------------|
G---------------------11------------11------12----12-12~--------------|
D---------------------------------------------------------------------|
A---------------------------------------------------------------------|
E---------------------------------------------------------------------|


e---------------------------------------------------------------------|
B--15-14-12--12-12-15-14-12--12-12-15-14-13-11-12~--------------------|
G---------------------------------------------------------------------|
D---------------------------------------------------------------------|
A---------------------------------------------------------------------|
E---------------------------------------------------------------------|

any comments/corrections needed contact me,please rate
            
Submit corrections

comments powered by Disqus
↑ Back to top | Major Accident Tabs for Respectable. Lyrics for acoustic guitar and electric guitar. 1 Tablatures and chords are parodies/interpretations of the original songs. You may use it for private study, scholarship, research or language learning purposes only