» » »

Majke, Rodjen U Blatu Tabs (ver.1)

Artists:  A B C D E F G H I J K L M N O P Q R S T U V W X Y Z # 

Rodjen U Blatu Tabs (ver.1)

Majke Tabs
 Rating:
4/5 (4 votes)
Rodjen U Blatu lessons Tabs too difficult? Try these video lessons and learn fast
                Intro
e-------------------I        e--------------------II
B-------------------I        B--------------------II
G--3-4b..--2-3b..---I-2X ili G--3-4b..-----2-3b..-II-2X
D-------------------I        D----4b..-------3b..-II
A-------------------I        A--------------------II
E-------------------I        E--------------------II

Verse(strofa)- 
Glavni riff za verse i sviraj za mali solo posli prve strofe

e-----------------------------------I
B--------^-^-^---------^-^-^--------I
G----3-3-0-0-0-----3-3-0-0-0--------I-itd...
D----3-3-------5-3-3-3-------5-3----I
A-----------------------------------I
E-0---------------------------------I

Refren
 <----2X--->
e------------I----------------II
B-3-5-7-5s3.-I----------------II-Rodzen u blatu se moze svirati samo na
G-3-5-7-5s3.-I-1----3-5-7---5-II A zici- 1-3-5-7-5 ima vise varijanti pa sami
D------------I-1----3-5-7---5-II vidite koja van vise pase
A------------I-1----3-5-7---5-II
E------------I----------------II
               Rodzen u blatu.......

SOLO-2 puta sviraj bez destorcije a 4 sa- ja mislin da  ovako dobro zvuci
     H
e----------------------------II
B----------------------------II
G----------------------------II-6X
D--12b-----------------------II
A-------14-12--9s7s9-9999----II
E----------------------------II

Onda -glavni riff- 3X prije nego Bare  pocne pivati
pa onda opet -glavni riff-do kraja strofe pa onda -refren- sve do kraja

b-bend
b.-drzi bend i pusti neka odzvanja
^-udri zicu prima gori da dobijes pravi zvuk
3.-pusti neka malo odzvanja drugi put kad odsviras taj riff
H-bend pola stupnja

PISMA

Rodzen sam u blatu
bio je mracan dan
svatio sam odmah
morat cu sam
Rodzen sam u blatu
sa sestrom zvjezdom
srce je tuzno kad si sam
nekon bih ljubav ljubav da dam
Rodzen u blatu
sad sam tu lud i spreman
da naucim nesto
u sebe sam gurao svasta
nisam shvatio nista
To nije mjesto za mene
nije po ukuso mom
idem nazad na put
Vracam se blatu mom
rodzen u blatu
            
Submit corrections

comments powered by Disqus
↑ Back to top | Majke Tabs for Rodjen U Blatu. Lyrics for acoustic guitar and electric guitar. Tablatures and chords are parodies/interpretations of the original songs. You may use it for private study, scholarship, research or language learning purposes only