» » »

Majke, Put Ka Sreci Tabs (ver.1)

Artists:  A B C D E F G H I J K L M N O P Q R S T U V W X Y Z # 

Put Ka Sreci Tabs (ver.1)

Majke Tabs
 Rating:
4/5 (4 votes)
Put Ka Sreci lessons Tabs too difficult? Try these video lessons and learn fast
1
                G
E||----7--7--7--7--5--3-----|--3----------------|----7--7--7--7--5--3-----|
B||----------------------5--|-------------------|----------------------5--|
G||-------------------------|-------------------|-------------------------|
D||-------------------------|-------------------|-------------------------|
A||-------------------------|-------------------|-------------------------|
E||-------------------------|-------------------|-------------------------|

  C                                              D               C    
--5--------3--------|----7--7--7--7--5--3-----|--5----5----5--2-------|
--------------------|----------------------5--|------------------5----|
--------------------|-------------------------|-----------------------|
--------------------|-------------------------|-----------------------|
--------------------|-------------------------|-----------------------|
--------------------|-------------------------|-----------------------|

                             G         
-----7--7--7--7--5--3-----|--3--------5----3----|
--3--------------------5--|---------------------|
--------------------------|---------------------|
--------------------------|---------------------|
--------------------------|---------------------|
--------------------------|---------------------|

GITARA 2
UVOD : G C D C G

G
gdje je nestao covjek 
C
gdje se skriva on
G
iz vagona godina
C
na tracnice ispao

G
gleda gdje su znakovi
C
kojim putem krenuti
G
moze li tko reci
C
gdje je put ka sreci

A
samo zivi samo budi
C
svi odgovori doci ce sami
A
samo stoj na svjetlu
C	       D
i doci ce kraj tami

UVOD

G
kakva je to istina
C
kad s druge strane je laz
G
izvrnute vrijednosti
C
strah samo strah

G
neostvarivi snovi
C
radis ono sto ne volis
G
ali mogu ti reci
C
gdje je put ka sreci

samo zivi...

UVOD
SOLO
				   G	
----19--19--19--19--17--15------|--15----------------|
----------------------------17--|--------------------|
--------------------------------|--------------------|
--------------------------------|--------------------|
--------------------------------|--------------------|
--------------------------------|--------------------|

				   C
----19--19--19--19--17--15------|--17--------15--------|
----------------------------17--|----------------------|
--------------------------------|----------------------|
--------------------------------|----------------------|
--------------------------------|----------------------|
--------------------------------|----------------------|

        			   D	               C
----19--19--19--19--17--15------|--17----17----17--14--------|
----------------------------17--|----------------------17----|
--------------------------------|----------------------------|
--------------------------------|----------------------------|
--------------------------------|----------------------------|
--------------------------------|----------------------------|

				     G	  
------19--19--19--19--17--15------|--15--------17----15----||
--15--------------------------17--|------------------------||
----------------------------------|------------------------||
----------------------------------|------------------------||
----------------------------------|------------------------||
----------------------------------|------------------------||
            
Submit corrections

comments powered by Disqus
↑ Back to top | Majke Tabs for Put Ka Sreci. Lyrics for acoustic guitar and electric guitar. 1 Tablatures and chords are parodies/interpretations of the original songs. You may use it for private study, scholarship, research or language learning purposes only