» » »

Mrsav Pas Tabs (ver.1)

Artists:  A B C D E F G H I J K L M N O P Q R S T U V W X Y Z # 

Mrsav Pas Tabs (ver.1)

Majke
Rating:
0/5 (0 votes)

Hard to play? Try these video lessons and learn fast.
                (Riff 1)
e--------------------------------3----------------------
H--------------------------------0----------------------
G--------------------------------0----------------------
D--------------------------------0----------------------
A------------0h2---0-------2-----2----------------------
E----0--2---------------3--------3----------------------

(Riff 2)
e-------------------------------------------------------
H-------------------------------------------------------
G-------------------------------------------------------
D---2-2-2-2-2-2-/-5-5-5-/-2-2-2-2-2-2-2-----------------
A---3-3-3-3-3-3-/-6-6-6-/-3-3-3-3-3-3-3-----------------
E---2-2-2-2-2-2-/-5-5-5-/-2-2-2-0-0h2-2-----------------

VERSE: E   Riff1   G   A

CHORUS: Riff2

Ja sam mrsavi pas
Ostavljen od gospodara
Poznajem svakog od vas
Moja sjecanja su bolna i stara
Svakog dana ona navrati
Da me kroz san vodi
Tad pocinjem u groznici drhtati
I novo prokletstvo se rodi.

Bio sam vezan lancem od bola
Svakoga dana lizao rane
A ona se pojavi ruzna i gola
I sva bol tad mi stane
Ne zelim vise da pricam o sebi
Ionako me nitko ne razumije
Cuvaj se zato bestije ove
Bestija se zivot zove.

Ne trazi me
Iako zelim da me nades
Ne spasavaj me
Iako zelim da me spasis.
            
Hard to play? Try these video lessons and learn fast. | Correct




comments powered by Disqus
↑ Back to top | Tablatures and chords are parodies/interpretations of the original songs. You may use it for private study, scholarship, research or language learning purposes only