» » »

Majke, Mene Ne Zanima Tabs (ver.2)

Artists:  A B C D E F G H I J K L M N O P Q R S T U V W X Y Z # 

Mene Ne Zanima Tabs (ver.2)

Majke Tabs
 Rating:
4.3/5 (6 votes)
Mene Ne Zanima lessons Tabs too difficult? Try these video lessons and learn fast
                - Intro :
     gtr I  (ritam)
                      3x
  e|--------------------|-----------------|-------------------|------------------|
  B|--------------------|-----------------|-------------------|------------------|
  G|*------------------*|-----------------|-------------------|------------------|
  D|*------------------*|-----------------|-------------------|------------------|
  A|--5-5--7--5-5-5--7--|---3-3-2-2-3b4-2-|--5-5--7--5-5-5--7-|-5-5--7--5-5-5--7-|
  E|--3-3--3--3-3-3--3--|-0-1-1-0-0-------|--3-3--3--3-3-3--3-|-3-3--3--3-3-3--3-|
                        |
                        |  gtr II (solo)
                        |
                        |-----------------|-------------------|------------------|
                        |-----------------|--3----------------|-------------5----|
                        |-----2-----------|--2----------------|-------------4----|
                        |---3---2-2-0-0---|--0----------------|-------------2----|
                        |---------------2-|-------------------|------------------|
                        |-----------------|-------------------|------------------|

  e|--------------------|------------------|
  B|--------------------|------------------|
  G|--------------------|------------------|
  D|--------------------|------------------|
  A|--5-5--7--5-5-5--7--|---3-3-2-2-3b4-2--|
  E|--3-3--3--3-3-3--3--|-0-1-1-0-0--------|
   |
   |
  e|--------------------|------------------|
  B|--6/8------------6\-|------------------|
  G|--5/7------------5\-|-----2------------|
  D|--3/5------------3\-|---3---2-2-0-0----|
  A|--------------------|---------------2--|
  E|--------------------|------------------|

 - Strofa :
                       3x
  e|----------------------|-------------------|
  B|----------------------|-------------------|
  G|*--------------------*|-------------------|
  D|*--------------------*|-------------------|
  A|---5-5--7--5-5-5--7---|----3-3-2-2-3b4-2--|
  E|---3-3--3--3-3-3--3---|--0-1-1-0-0--------|
   |
   |                   3x
  e|----------------------|-------------------|
  B|---3----5--3------5---|--3---------3---5--|
  G|*--2----4--2------4--*|--2---------2---4--|
  D|*--0--0-2--0------2--*|--0---------0---2--|
  A|----------------------|-------------------|
  E|----------------------|-------------------|

 - Pre-Chorus :

  e|--------------------------|------------------|
  B|----5-3-3--5-5--3-3--5-5--|--3-3--5-5--5--5--|
  G|----5-3-3--5-5--3-3--5-5--|--3-3--5-5--5--5--|
  D|----5-3-3--5-5--3-3--5-5--|--3-3--5-5--5--5--|
  A|--3---1-1--3-3--1-1--3-3--|--1-1--3-3--3--3--|
  E|--------------------------|------------------|

     gtr I
  e|----------------------|------------------|
  B|----------------------|------------------|
  G|----------------------|------------------|
  D|----------------------|------------------|
  A|--5-5--7--5-5-5--7-5--|--5-5--7-5--5--7--|
  E|--3-3--3--3-3-3--3-3--|--3-3--3-3--3--3--|
   |
   | gtr II  ( fill 1 )
  e|----------------------|------------------|
  B|----------------------|------------------|
  G|-------7--7-7~--------|------------------|
  D|--7b9------------9r7--|-p5---------5~-5--|
  A|----------------------|-------5h7--------|
  E|----------------------|------------------|


  e|--------------------------|------------------|
  B|----5-3-3--5-5--3-3--5-5--|--3-3--5-5--5--3--|
  G|----5-3-3--5-5--3-3--5-5--|--3-3--5-5--5--3--|
  D|----5-3-3--5-5--3-3--5-5--|--3-3--5-5--5--3--|
  A|--3---1-1--3-3--1-1--3-3--|--1-1--3-3--3--1--|
  E|--------------------------|------------------|


     gtr I
  e|--------------------------|
  B|--6---6-6\----8---8---8\--|
  G|--6---6-6\----8---8---8\--|
  D|--6---6-6\----8---8---8\--|
  A|--4---4-4\----6---6---6\--|
  E|--------------------------|
   |
   | gtr II
  e|--------------------------|
  B|--8-8-8-8\----10-10--12\--|
  G|--8-8-8-8\----10-10--12\--|
  D|--8-8-8-8\----10-10--12\--|
  A|--6-6-6-6\-----8--8--10\--|
  E|--------------------------|


 -  Chorus :

  e|-----------------------|--------------------------|
  B|---7-7--7-7--5-5--5-5--|-5--5-5--5--3-3--5--5-5---|
  G|*--7-7--7-7--5-5--5-5--|-5--5-5--5--3-3--5--5-5--*|
  D|*--7-7--7-7--5-5--5-5--|-5--5-5--5--3-3--5--5-5--*|   - Rhy. Fig. 1
  A|---5-5--5-5--3-3--3-3--|-3--3-3--3--1-1--3--3-3---|
  E|-----------------------|--------------------------|


 -  Bridge / Strofa :

     gtr I              3x
  e|----------------------|-------------------|
  B|----------------------|-------------------|
  G|*--------------------*|-------------------|
  D|*--------------------*|-------------------|
  A|---5-5--7--5-5-5--7---|----3-3-2-2-3b4-2--|
  E|---3-3--3--3-3-3--3---|--0-1-1-0-0--------|
   |
   | gtr II             3x
  e|----------------------|-------------------|
  B|---3----5--3------5---|--3---------3---5--|
  G|*--2----4--2------4--*|--2---------2---4--|
  D|*--0--0-2--0------2--*|--0---------0---2--|
  A|----------------------|-------------------|
  E|----------------------|-------------------|

 -  Pre-Chorus :

     < gtr II ubacuje Fill 2 >

  e|------------------|----------------|
  B|------------------|----------------|
  G|------7-7-7~------|--7-7-----------|
  D|--7b9--------7b9--|-------9r7--5~--|
  A|------------------|----------------|
  E|------------------|----------------|


   - Chorus

   - Solo :

      gtr I       8x                 4x
  e|-----------------|-----------------|-------------------------|
  B|---3--5---3--5---|---6--8---6--8---|--6--6-6-6---8-8-8--10\--|
  G|*--2--4---2--4--*|*--5--7---5--7--*|--6--6-6-6---8-8-8--10\--|
  D|*--0--2---0--2--*|*--3--5---3--5--*|--6--6-6-6---8-8-8--10\--|
  A|-----------------|-----------------|--4--4-4-4---6-6-6---8\--|
  E|-----------------|-----------------|-------------------------|

      gtr II

  e|---------------------------|-------13----13----13--------|
  B|-----------------------11--|-13b15----15----15----15r13--|
  G|--10b12-12--12~--12-12-----|-----------------------------|
  D|---------------------------|-----------------------------|
  A|---------------------------|-----------------------------|
  E|---------------------------|-----------------------------|

  e|----------------------13-|--------------------------|
  B|--11--13----11--13b15----|--15r13--11--13p11----13--|
  G|---------12--------------|-------------------12-----|
  D|-------------------------|--------------------------|
  A|-------------------------|--------------------------|
  E|-------------------------|--------------------------|

  e|--------------------------|-----------------------|
  B|--11----------------------|-----------------------|
  G|--12--12-12~--12-10-------|-----------------------|
  D|--------------------12p11-|-9----9-----11b13--11--|
  A|--------------------------|---12----12------------|
  E|--------------------------|-----------------------|

  e|-------------------------|----------------------------|
  B|-------------------------|--/11-13b15-11--13--11--11--|
  G|-------------------------|--------------------12------|
  D|--9--11p9----/11--9~-----|----------------------------|
  A|----------12---------10\-|----------------------------|
  E|-------------------------|----------------------------|

  e|-----------------------------------|---------------------------|
  B|--13b15-13b15--15r13p11--13p11-----|-13--11--------------------|
  G|-------------------------------12--|-12--12--/12--10-----------|
  D|-----------------------------------|-----------------12p11--9~-|
  A|-----------------------------------|---------------------------|
  E|-----------------------------------|---------------------------|

  e|-------------------------------|-----------------------------------|
  B|-------------------------------|-----------------------------------|
  G|--------10h12----10b12-10b12~--|-10-------------12----10-----------|
  D|--11-12-------12---------------|----12-11b13-13----13----13r11-9~--|
  A|-------------------------------|-----------------------------------|
  E|-------------------------------|-----------------------------------|

  e|-----------------------------||
  B|-----------------------------||
  G|----------------------12-----||
  D|--11-11-9h11--9-11b13----13--||
  A|-----------------------------||
  E|-----------------------------||


  -  Pre-Chorus :

   < gtr I svira Rhy. Fig. 1 do kraja >

     gtr II

  e|---------------------------|--------------------------------|
  B|---------------------------|-----------------------11b13~\--|
  G|----------------9b10-9b10~-|-10b12-10b12~--13b15~-----------|
  D|--11b13-11b13~\------------|--------------------------------|
  A|---------------------------|--------------------------------|
  E|---------------------------|--------------------------------|


  e|---------------------------|--------------------------------|
  B|---------------------------|--------------------------------|
  G|----------------9b10-9b10~-|-10b12-10b12~--9b10~------------|
  D|--11b13-11b13~\------------|-----------------------11b13~\--|
  A|---------------------------|--------------------------------|
  E|---------------------------|--------------------------------|


  - Chorus :

     gtr II

  e|-----------------------------|------------------------------|
  B|-----------------------------|------------------------------|
  G|-----------------------------|------------------------------|
  D|--11b13~-13r11p9-------------|------------------------------|
  A|-----------------10~\--------|------------------------9-12~-|
  E|----------------------7-9-10-|-7\-7-9-10--7\-9-10--12-------|

  e|----------------------------------|----------------------------|
  B|----------------------------------|----------------------------|
  G|----------------------------------|--------------------10------|
  D|--11b13r11p9\7--11-9~--11b13r11p9-|-11-9-------9h11h12----11p9-|
  A|----------------------------------|------12--9-----------------|
  E|----------------------------------|----------------------------|

  e|--------------------------------|---------------------------|
  B|--------------------------------|---------------------------|
  G|------------------/10b12-10b12~-|------------10b12--10b12~--|
  D|-----9--------------------------|---------------------------|
  A|--12---10-9--10~\---------------|--10h12h13-----------------|
  E|--------------------------------|---------------------------|

  e|--------------------------|------------------------------|
  B|--------------------------|------------------------------|
  G|------------10b12--10b12~-|-----------12/14b15~15r14-12--|
  D|--------------------------|------------------------------|
  A|--10h12h13----------------|--10h12h13--------------------|
  E|--------------------------|------------------------------|

  e|--------------------------|----------------------------|
  B|--------------------------|----------------15----------|
  G|--------12-14--pb15r14-12-|-------12--pb15~--15r14p12--|
  D|--12h14-------------------|-12h14----------------------|
  A|--------------------------|----------------------------|
  E|--------------------------|----------------------------|

  e|----------------------------|-----------------------------|
  B|---------------------11-11~-|----11-11~---11-11----11-11~-|
  G|-----12-10h12~-10h12--------|-12-------12-------12--------|
  D|--14------------------------|-----------------------------|
  A|----------------------------|-----------------------------|
  E|----------------------------|-----------------------------|

  e|--------------13----13----13----13-13-|----13-13-------------------|
  B|-----11--13b15---15----15----15-------|-15-------15r13p11-11-------|
  G|--12----------------------------------|-----------------------12~--|
  D|--------------------------------------|----------------------------|
  A|--------------------------------------|----------------------------|
  E|--------------------------------------|----------------------------|

  e|------10-13b15~-13--10-------|--10-8h10p8--------------------------|
  B|--/11------------------13-11-|------------11~\-----------------11\-|
  G|-----------------------------|---------------------------10-10-----|
  D|-----------------------------|------------------------12-----------|
  A|-----------------------------|------------------10h12--------------|
  E|-----------------------------|-------------------------------------|

  e|---------------------------------|-------------------------------|
  B|--11-11----11-11-11----11----11\-|---11\----11----11---11\----11-|
  G|--12----12----12----12----12-----|-12----12----12----12----12----|
  D|---------------------------------|-------------------------------|
  A|---------------------------------|-------------------------------|
  E|---------------------------------|-------------------------------|

  e|-----------------------------|--------------------13-----------|
  B|-----11-11---11\---11----11--|-----------11-13b15----15r13-11--|
  G|--12-------12---12----12-----|-12-10-12\-----------------------|
  D|-----------------------------|---------------------------------|
  A|-----------------------------|---------------------------------|
  E|-----------------------------|---------------------------------|

  e|------------------------13-|-13p10----13p10----13p10----/10--|
  B|--13-11--------11-13b15----|-------13-------13-------13------|
  G|--------12-12~-------------|---------------------------------|
  D|---------------------------|---------------------------------|
  A|---------------------------|---------------------------------|
  E|---------------------------|---------------------------------|

  e|-/10~-13--10p8----8--------|---------------------||
  B|---------------11---11-----|------------/11~~----||
  G|-----------------------12--|-10--10h12~----------||
  D|---------------------------|---------------------||
  A|---------------------------|---------------------||
  E|---------------------------|---------------------||


------------------------------------------------------------------------


              Mene ne zanima to o cemu se prica
              Mene ne zanima to sto se dogadja
              Jer uvijek sam bio isti
              I svakom gledao u oci
              Ne zelim razmisljati o novom pogledu na zivot

                Zelim razmisljati o Ljubavi
                Zelim razmisljati o Ljubavi

              Meni ne mozes lagati, meni ne mozes pricati
              Mene ne mozes ni zamoliti, mozes mi samo mahati

              Sa druge obale, saljive obale, opasne obale
              Koju zapljuskuju strahoviti valovi, valovi bijesa

                Zato ti kazem
                Povrati u rijeku, pasji skote
                Pojedi novac i reci
                Hvala ti zivote,
                Hvala ti zivote
                Povrati u rijeku, pasji skote
                Pojedi novac i reci
                Hvala ti zivote,
                Hvala ti zivote
            
Submit corrections

comments powered by Disqus
↑ Back to top | Majke Tabs for Mene Ne Zanima. Lyrics for acoustic guitar and electric guitar. Tablatures and chords are parodies/interpretations of the original songs. You may use it for private study, scholarship, research or language learning purposes only