» » »

Majke, Mene Ne Zanima Tabs (ver.1)

Artists:  A B C D E F G H I J K L M N O P Q R S T U V W X Y Z # 

Mene Ne Zanima Tabs (ver.1)

Majke Tabs
 Rating:
4.2/5 (5 votes)
Mene Ne Zanima lessons Tabs too difficult? Try these video lessons and learn fast
                Pocetni riff:
e|-------------------------------------------------------------|
H|-------------------------------------------------------------|
G|-----------------------------------------2-------------------|
D|-----------------------------------------0-4-----------------|
A|--55-7-555-7-55-7-555-7-55-7-555-7-33-22---2-5---------------|
E|--33-3-333-3-33-3-333-3-33-3-333-3-11-00-----3---------------|


     G riff:        C riff:        G     B     C     D#    F
 e|--------------|--------------|--3--|--6--|--3--|--6--|--8---|
 H|--------------|--------------|--3--|--6--|--5--|--8--|--10--|
 G|--------------|--------------|--4--|--7--|--5--|--8--|--10--|
 D|--------------|--55-7-555-7--|--5--|--8--|--5--|--8--|--10--|
 A|--55-7-555-7--|--33-3-333-3--|--5--|--8--|--3--|--6--|--8---|
 E|--33-3-333-3--|--------------|--3--|--6--|-----|-----|------|


[Pocetni riff]
Mene ne zanima to o cemu se prica
Mene ne zanima to sto se dogadja
Jer uvijek sam bio istiI svakom gledao u oci
Ne zelim razmisljati o novom pogledu na zivot

[C riff]                  [G riff]
Zelim razmisljati o ljubavi
[C riff]                  [D#]  [F]
Zelim razmisljati o ljubavi

[Dalje se svira G B C D# F]

Meni ne mozes lagati, meni ne mozes pricati
Mene ne mozes ni zamoliti a mozes mi samo mahati
Sa druge obale, saljive obale
Opasne obale koju zapljuskuju strahoviti valovi, valovi bjesa
Zato ti kazem
Povrati u rijeku pasiji skote
Pojedi novac i reci hvala ti zivote, hvala ti zivote
Povrati u rijeku pasiji skote
Pojedi novac i reci hvala ti zivote, hvala ti zivote
Hvala ti zivote, hvala ti zivote, hvala ti zivote
            
Submit corrections

comments powered by Disqus
↑ Back to top | Majke Tabs for Mene Ne Zanima. Lyrics for acoustic guitar and electric guitar. Tablatures and chords are parodies/interpretations of the original songs. You may use it for private study, scholarship, research or language learning purposes only