» » »

Insha Allah Intro Tabs

Artists:  A B C D E F G H I J K L M N O P Q R S T U V W X Y Z # 

Insha Allah Intro Tabs

(ver. 1)
Maher Zain Tabs
 Rating:
4/5 (4 votes)
    Insha Allah lessons Tabs too difficult? Try these video lessons and learn fast
                (Intro)
Intro
E ||-----------------------------------------------------------------------|
B ||------------------6--8-------------------------------------------------|
G ||----5--7--8-8-8-8------7-7-7-7/5---------------------------------------|
D ||---5-------------------------------------------------------------------|
A ||-----------------------------------------------------------------------|
E ||-----------------------------------------------------------------------|
(repeat)

E ||-----------------------------------------------------------------------|
B ||------------------6--8-8-8-8--8--9--8--6-6-6-6/4-4(12x)----------------|
G ||----5--7--8-8-8-8------------------------------------------------------|
D ||---5--------------------------------------------------6(6x)-8(4x)-5(4x)|
A ||-----------------------------------------------------------------------|
E ||-----------------------------------------------------------------------|

Hope it suit with the song (^^)
            
Submit corrections

↑ Back to top | Maher Zain Tabs for Insha Allah. Lyrics for acoustic guitar and electric guitar. Tablatures and chords are parodies/interpretations of the original songs. You may use it for private study, scholarship, research or language learning purposes only