>
 >
For The Rest Of My Life Intro

For The Rest Of My Life Intro Guitar Tabs

Maher Zain - For The Rest Of My Life Intro chords, tabs, tablatures, lyrics

Guitar lessons | Add/correct | Request | Top 50 tabs Artists:  A B C D E F G H I J K L M N O P Q R S T U V W X Y Z 0-9

For The Rest Of My Life Intro Guitar Tabs – Maher Zain

CD, Sheet music, Poster

Do you like For The Rest Of My Life Intro? Share with your friends now
Tabs
Intro solo
E||---------------------------------------------0---------------------|
B||-10-10-10-------12--13---------------------1-----------------------|
G||----------------------------------------2--------------------------|
D||-------------------------------------2-----------------------------|
A||----------------------------------0--------------------------------|
E||-------------------------------------------------------------------|

E||------------------------------------------------------------|
B||------------------------------------------------------------|
G||-------------------------9-10-12-10-9---------9-------------|
D||-----------9-10-12------------------------12----------------|
A||-10-12------------------------------------------------------|
E||------------------------------------------------------------|

E||--------------------------------------------------|
B||-------------3------------------------------------|
G||---------0----------------------------------------|
D||------0-------------------------------------------|
A||--------------------------------------------------|
D||--3-----------------------------------------------|

E||--------------------------------------------------------------|
B||--------------------------------------------------------------|
G||--9-10-9------------------------------------------------------|
D||--------------12-10-9-----------------------------------------|
A||---------------------------12-10-8----------------------------|
E||----------------------------------------12--------------------|

E||-----------------1------------------------------------------------|
B||-----------------1------------------------------------------------|
G||-----------------2------------------------------------------------|
D||---------3--------------------------------------------------------|
A||-----3------------------------------------------------------------|
E||-1----------------------------------------------------------------|

E||-----------------------------------------------------------------|
B||-----------------------------------------------------------------|
G||-----------------------------------------------------------------|
D||-----------------------------------------------------------------|
A||---------8-10-12-10-8--------------------------------------------|
E||-12---------------------------12-10-8-12-10-8-7------------------|

E||--------------------------------------------------|
B||--------------------------------------------------|
G||--------------------------------------------------|
D||--------------------------------------------------|
A||--------------------------------------------------|
E||--12--------16----------19------------------------|





Comments


Popular Maher Zain tabs & chords
Awaken Chords
Baraka Allahu Lakuma Chords
For The Rest Of My Life Chords
Insha Allah 1 Chords
My Little Girl Chords
Open Your Eyes 1 Chords
Ramadan Chords
Hold My Hand Ukulele
Ku Milikmu Ukulele
Number One For Me Ukulele


Song lyrics



↑ Back to top | Tablatures and chords are parodies/interpretations of the original songs. You may use it for private study, scholarship, research or language learning purposes only
© 2014 AZChords.com Contact us | Privacy policy | DMCA | Add/correct tabs | Request tabs | Top 50 tabs