» » »

Magtens Korridorer, Skt Petri Torv Tabs (ver.1)

Artists:  A B C D E F G H I J K L M N O P Q R S T U V W X Y Z # 

Skt Petri Torv Tabs (ver.1)

Magtens Korridorer Tabs
Rating:
0/5 (0 votes)
Skt Petri Torv lessons Tabs too difficult? Try these video lessons and learn fast
                Magtens Korridorer – Skt. Petri Torv

Well I guess that not so many other people than the Danish are listing to Magtens 
Korridorer then I am writing in English.



Gtr. 1

intro
|----------------|----------------|----------------|----------------|
|----------------|----------------|----------------|----------------|
|-0-0------------|-0-0------------|-0-0------------|-0-0------------|
|-----2-2-(2)-(2)|-----2-2-(2)-(2)|-----2-2-(2)-(2)|-----2-2-(2)-(2)|
|----------------|----------------|----------------|----------------|
|----------------|----------------|----------------|----------------|

Gtr. 2

|-1----3----0----|
|-0----2----0----|
|-0----3----0----|
|-0----0----2----|
|-2---------2----|
|-3---------0----|

Efter 1. omkvæd. Spilles i hvert vers

|----------------|----------------|----------------|----------------|
|----------------|----------------|----------------|----------------|
|---------0------|---------0------|---------0------|---------0------|
|-----2-----2---2|-----2-----2---2|-----2-----2---2|-----2-----2---2|
|---2---2-----2--|---2---2-----2--|---2---2-----2--|---2---2-----2--|
|-0--------------|-0--------------|-0--------------|-0--------------|

Gtr. 2

|-1----3----0----|
|-0----2----0----|
|-0----3----0----|
|-0----0----2----|
|-2---------2----|
|-3---------0----|

vers.

Em               Em
Mød mig ved Skt. Petri Torv
    G     D      Em
ved Lundenborg Ruin
Em             Em
I kælderbaren ”Gravens Rand”
    G       D        Em
der skænkes Rhingken vin


Em                  Em
Vi synger sange, de gamle sange
   G   D       Em
om Kinabugtens Kaj
Em               Em
småt over gader, gennem stræder
  G     D     Em
sirener toner med


omkvæd

   D              Em
Du tror måske det er for sjov
    G    C      G
men Fenrisulven er på rov
   D             Em   
du tænker at det nok skal gå
     G    C      G D       Em
mens hele verden   brænder på


vers.

  Em               Em
I vesten skuer ved gyldne luer
    G   D       Em
fra Kinabugtens Kaj
    Em            Em
der ristes runer, blå monsuner
   G      D      Em
de gyldne dunkle tegn


   Em                    Em
Og Tingbjergs sanger, en grænseganger
G     D       Em
hyler fra sit tårn
   Em                Em
og Doggerbanker, der lægges anker
G     D       Em
skuer varsomt ud


omkvæd

   D              Em
Du tror måske det er for sjov
    G     C     G
men Fenrisulven er på rov
   D             Em
du tænker at det nok skal gå
     G    C      G D       Em
mens hele verden   brænder på



Håber det kan bruges til noget og hvis ikke, så er det bare syndt...
            

comments powered by Disqus
↑ Back to top | Magtens Korridorer Tabs for Skt Petri Torv. Lyrics for acoustic guitar and electric guitar. Tablatures and chords are parodies/interpretations of the original songs. You may use it for private study, scholarship, research or language learning purposes only