» » »

Pisser Pa Plakaten Tabs (ver.1)

Artists:  A B C D E F G H I J K L M N O P Q R S T U V W X Y Z # 

Pisser Pa Plakaten Tabs (ver.1)

Magtens Korridorer
Rating:
5/5 (1 vote)

Tabs too difficult? Try these video lessons and learn fast.
                -------------------------------------------------------------------------------
                             p**sER PÅ PLAKATEN - Magtens Korridorer
-------------------------------------------------------------------------------


Tuning: standard (e, B, G, D, A, E)
__________

 List:
 Verse
 Chorus
 Verse
 Chorus x2
 Break
 Verse
 Chorus x2
 Outro
__________

- Intro/verse
e|--------------------------------|
B|--------------------------------|
G|--------------------------------|
D|-10-10---7-x-x--10-10-5-5-3-3-x-|
A|-10-10---7-x-x--10-10-5-5-3-3-x-|
E|-8--8--0-5-x-x---8--8-3-3-1-1-x-|

- After 4 times, right before he starts singing, play this
e|--------------------------------|
B|--------------------------------|
G|--------------------------------|
D|-10-10~/7-/-----10-10-5-5-3-3-x-|
A|-10-10~/7-/-----10-10-5-5-3-3-x-|
E|-8--8-~/5-/------8--8-3-3-1-1-x-|

- 0:30, a second guitar begins and plays this 'till 0:37:
e|--------------------|
B|--------------------|
G|--------------------|
D|--------------------|
A|--------------------|
E|-1//////5~~//////-1-|

- 0:40, right before chorus:
e|---------------------------------|
B|---------------------------------|
G|---------------------------------|
D|-7-7-7-7-7-7-7-7-7-7-4-4-5-5-6-6-|
A|-7-7-7-7-7-7-7-7-7-7-4-4-5-5-6-6-|
E|-5-5-5-5-5-5-5-5-5-5-2-2-3-3-4-4-|



- CHORUS
e|-----------------------------------------------------------------|
B|-----------------------------------------------------------------|
G|-----------------5-5-5-5-5-5-5-5-4-4-4-4-4-4-4-4-7-7-7-7-7-7-7-7-|
D|-7-7-7-7-7-7-7-7-5-5-5-5-5-5-5-5-4-4-4-4-4-4-4-4-7-7-7-7-7-7-7-7-|
A|-7-7-7-7-7-7-7-7-3-3-3-3-3-3-3-3-2-2-2-2-2-2-2-2-5-5-5-5-5-5-5-5-|
E|-5-5-5-5-5-5-5-5-------------------------------------------------|

e|-----------------------------------------------------------------|
B|-------------------------------------------------10b-10b-10b-8/--|
G|-----------------5-5-5-5-5-5-5-5-4-4-4-4-4-4-4-4-----------------|
D|-7-7-7-7-7-7-7-7-5-5-5-5-5-5-5-5-4-4-4-4-4-4-4-4-----------------|
A|-7-7-7-7-7-7-7-7-3-3-3-3-3-3-3-3-2-2-2-2-2-2-2-2-----------------|
E|-5-5-5-5-5-5-5-5-------------------------------------------------|



- BREAK
- Guitar 1
e|---------------------------------------------------------------------------|
B|---------------------------------------------------------------------------|
G|---------------------------------------------------------------------------|
D|--10--10/9-9~---10--10/9-9----10--10/9-9/--5-5-5-5-5-5-5-5-4-4-4-4-4-4-4-4-|
A|-------------------------------------------5-5-5-5-5-5-5-5-4-4-4-4-4-4-4-4-|
E|-8---8----7----8---8----7----8---8----7----3-3-3-3-3-3-3-3-2-2-2-2-2-2-2-2-|

- Guitar 2
e|---------------------------------------------------------------------------|
B|---------------------------------------------------------------------------|
G|---------------------------------------------------------------------------|
D|-------------------------------------------5-5-5-5-5-5-5-5-4-4-4-4-4-4-4-4-|
A|-------------------------------------------5-5-5-5-5-5-5-5-4-4-4-4-4-4-4-4-|
E|-8~-------10~--8~-------7~---8~-------10~--3-3-3-3-3-3-3-3-2-2-2-2-2-2-2-2-|



- OUTRO
e|------------------------------|
B|------------------------------|
G|------------------------------| x2
D|-10-10---7-x-x--10-10-5-5-3-3-|
A|-10-10---7-x-x--10-10-5-5-3-3-|
E|-8--8--0-5-x-x---8--8-3-3-1-1-|

e|------------|
B|------------|
G|------------| x2
D|-10-10---7/-|
A|-10-10---7/-|
E|-8--8--0-5/-|

| pm  palm mute
| b   bend
| /   slide up
| \   slide down
| h   hammer-on
| p   pull-off
| ~   vibrato
| +   harmonic
| x   mute note

===============================================================================
            
Tabs too difficult? Try these video lessons and learn fast.


comments powered by Disqus
↑ Back to top | Tablatures and chords are parodies/interpretations of the original songs. You may use it for private study, scholarship, research or language learning purposes only