» » »

Noche Toledana Tabs (ver.1)

Artists:  A B C D E F G H I J K L M N O P Q R S T U V W X Y Z # 

Noche Toledana Tabs (ver.1)

Mago De Oz
Rating:
0/5 (0 votes)

Hard to play? Try these video lessons and learn fast.
                e|-------------|-------------|---------|---------------------||
B|-------12----|-------10----|-----8---|-7-7-8-7-7-8-7-------||
G|-12-12----12-|-11-11----11-|-9-9---9-|---------------9-8---||
D|-------------|-------------|---------|-------------------9-||
A|-------------|-------------|---------|---------------------||
E|-------------|-------------|---------|---------------------||


e|----------------|----------|----------|--------------------||
B|-------12-13-12-|-10-------|-------13-|-15-13-12-----------||
G|-12-12----------|----11----|-14-14----|----------14--------||
D|----------------|-------12-|----------|-------------14-----||
A|----------------|----------|----------|--------------------||
E|----------------|----------|----------|--------------------||


e|----------------|----------|----------|--------------------||
B|-------12-13-12-|-10-------|-------13-|-15-13-12-----------||
G|-12-12----------|----11----|-14-14----|----------14--------||
D|----------------|-------12-|----------|-------------14-----||
A|----------------|----------|----------|--------------------||
E|----------------|----------|----------|--------------------||


e|-------------|-------------|---------|---------------------||
B|-------12----|-------10----|-----8---|-7-7-8-7-7-8-7-------||
G|-12-12----12-|-11-11----11-|-9-9---9-|---------------9-8---||
D|-------------|-------------|---------|-------------------9-||
A|-------------|-------------|---------|---------------------||
E|-------------|-------------|---------|---------------------||


e|----------------|----------|----------|--------------------||
B|-------12-13-12-|-10-------|-------13-|-15-13-12-10-8-7-8--||
G|-12-12----------|----11----|-14-14----|--------------------||
D|----------------|-------12-|----------|--------------------||
A|----------------|----------|----------|--------------------||
E|----------------|----------|----------|--------------------||
            
Hard to play? Try these video lessons and learn fast. | Correct




comments powered by Disqus
↑ Back to top | Tablatures and chords are parodies/interpretations of the original songs. You may use it for private study, scholarship, research or language learning purposes only