>
 >
Maritormes

Maritormes Guitar Tabs

Mago De Oz - Maritormes chords, tabs, tablatures, lyrics

Guitar lessons | Add/correct | Request | Top 50 tabs Artists:  A B C D E F G H I J K L M N O P Q R S T U V W X Y Z 0-9

Maritormes Guitar Tabs – Mago De Oz

CD, Sheet music, Poster

Do you like Maritormes? Share with your friends now
Tabs
S�mbolos:   /    -->  Slide 
            h    -->  hammer-on
            p    -->  pull-off
         16/(18) -->  Bending
           PM..  -->  Palm Mute

Nota: Todas las notas son quintas


Guitarra 1                                              2 veces
|---------------------------------------------------------------|
|---------------------------------------------------------------|
|*----------5-9-5----------5-9-5----------4-7-4----------4-7-4-*|
|*-7--7-7-7-------7--7-7-7-------5--5-5-5-------5--5-5-5-------*|
|---------------------------------------------------------------|
|---------------------------------------------------------------|
|                                                               |
|Guitarra 2                                                     |
|---------------------------------------------------------------|
|---------------------------------------------------------------|
|*-------------------------------------------------------------*|
|*-------------------------------------------------------------*|
|--0--0-0-0-3-7-3-0--0-0-0-3-7-3----------2-5-2----------2-5-2--|
|--------------------------------3--3-3-3-------3--3-3-3--------|


| 0:12 |
Riff
----                                                        1.
 Guitarra 1                                     .............|
|---------------------------------------------------------------|
|---------------------------------------------------------------|
|*----------5-9-5----------5-9-5----------4-7-4----------4-7-4-*|
|*-7--7-7-7-------7--7-7-7-------5--5-5-5-------5--5-5-5-------*|
|---------------------------------------------------------------|
|---------------------------------------------------------------|
|                                                           1.  |
|Guitarra 2                                     .............|  |
|---------------------------------------------------------------|
|---------------------------------------------------------------|
|*-------------------------------------------------------------*|
|*-------------------------------------------------------------*|
|--0--0-0-0-3-7-3-0--0-0-0-3-7-3----------2-5-2----------2-5-2--|
|--------------------------------3--3-3-3-------3--3-3-3--------|

            2.
   ..........|
 Guitarra 1
|---------------|
|---------------|
|--9-7-5-7-5-4--|
|---------------|
|---------------|
|---------------|
|               |
|Guitarra 2     |
|---------------|
|---------------|
|---------------|
|---------------|
|--7-5-3-5-3-2--|
|---------------|


| 0:22 |
Verso (Guitarras 1 y 2)

Am
Por ti cari�o, encogeria la noche
      G          D
al tama�o de tu cama.
Am
Y compraria tus caricias pagando
       G           D
con besos mi libertad.

Palm Mute (PM)
Am
Por ti cari�o, perderia mi orgullo
            G          D
en la trastienda de mi alma,
Am
y saciar�a mi venganza bebiendo
         G                   D
como un loco en tu boca despu�s.


| 0:42 |
Estribillo (Guitarras 1 y 2)

C            G            A
Porque al rozarte siento miedo, amor,    |------------------------------|
                                         |------------------------------|
                                         |------------------------------|
                                         |---------------------------5--|
                                         |--0-0-0-3-7-3-0--0-0-0-3-0-3--|
                                         |------------------------------|
C         G
de despertar y no oir tu voz.            |-------------|
                                         |-------------|
                                         |-------------|
                                         |-------------|
                                         |--0-0-3-2-0--|
                                         |-------------|
C            G             Am
Y que al llegar el alba a tu ventana,    |------------------------------|
                                         |------------------------------|
                                         |------------------------------|
                                         |---------------------------5--|
                                         |--0-0-0-3-7-3-0--0-0-0-3-0-3--|
                                         |------------------------------|
C        G                 Am
abra los ojos y solo este yo.

|-------------------------------------------------------------|
|-------------------------------------------------------------|
|-------------------------------------------------------------|
|--------------------------0--------------0------------0------|
|--0-0-3-0--0-0-3-0--0-2-3---3-2-0--0-2-3---3-2----2-3---3-2--|
|-----------------------------------------------3-------------|


| 1:02 |
----                                                        1.
 Guitarra 1                                     .............|
|---------------------------------------------------------------|
|---------------------------------------------------------------|
|*----------5-9-5----------5-9-5----------4-7-4----------4-7-4-*|
|*-7--7-7-7-------7--7-7-7-------5--5-5-5-------5--5-5-5-------*|
|---------------------------------------------------------------|
|---------------------------------------------------------------|
|                                                           1.  |
|Guitarra 2                                     .............|  |
|---------------------------------------------------------------|
|---------------------------------------------------------------|
|*-------------------------------------------------------------*|
|*-------------------------------------------------------------*|
|--0--0-0-0-3-7-3-0--0-0-0-3-7-3----------2-5-2----------2-5-2--|
|--------------------------------3--3-3-3-------3--3-3-3--------|

            2.
   ..........|
 Guitarra 1
|---------------|
|---------------|
|--9-7-5-7-5-4--|
|---------------|
|---------------|
|---------------|
|               |
|Guitarra 2     |
|---------------|
|---------------|
|---------------|
|---------------|
|--7-5-3-5-3-2--|
|---------------|



| 1:12 |
Verso 2 (Guitarras 1 y 2)

Am
Por ti cari�o, robar�a una estrella
              G           D
y que en tus noches te velara
Am
y en los caminos rogaria a mi espada
        G             D
que me haga digno de ti.

PM
Am
Quiero perderme en la jauria de tus labios
       G             D
tormento es tu boquita de miel
Am
enjaule mi alma en tu linda armadura
    G                        D
forjada con tu cuerpo y tu piel.


| 1:32 |
( Estribillo )
C            G            A
Porque al rozarte siento miedo, amor,    |------------------------------|
                                         |------------------------------|
                                         |------------------------------|
                                         |---------------------------5--|
                                         |--0-0-0-3-7-3-0--0-0-0-3-0-3--|
                                         |------------------------------|
C         G
de despertar y no oir tu voz.            |-------------|
                                         |-------------|
                                         |-------------|
                                         |-------------|
                                         |--0-0-3-2-0--|
                                         |-------------|
C            G             Am
Y que al llegar el alba a tu ventana,    |------------------------------|
                                         |------------------------------|
                                         |------------------------------|
                                         |---------------------------5--|
                                         |--0-0-0-3-7-3-0--0-0-0-3-0-3--|
                                         |------------------------------|
C        G                 Am
abra los ojos y solo este yo.

|-------------------------------------------------------------|
|-------------------------------------------------------------|
|-------------------------------------------------------------|
|--------------------------0--------------0------------0------|
|--0-0-3-0--0-0-3-0--0-2-3---3-2-0--0-2-3---3-2----2-3---3-2--|
|-----------------------------------------------3-------------|


| 1:02 |
----                                                        1.
 Guitarra 1                                     .............|
|---------------------------------------------------------------|
|---------------------------------------------------------------|
|*----------5-9-5----------5-9-5----------4-7-4----------4-7-4-*|
|*-7--7-7-7-------7--7-7-7-------5--5-5-5-------5--5-5-5-------*|
|---------------------------------------------------------------|
|---------------------------------------------------------------|
|                                                           1.  |
|Guitarra 2                                     .............|  |
|---------------------------------------------------------------|
|---------------------------------------------------------------|
|*-------------------------------------------------------------*|
|*-------------------------------------------------------------*|
|--0--0-0-0-3-7-3-0--0-0-0-3-7-3----------2-5-2----------2-5-2--|
|--------------------------------3--3-3-3-------3--3-3-3--------|

            2.
   ..........|
 Guitarra 1
|---------------|
|---------------|
|--9-7-5-7-5-4--|
|---------------|
|---------------|
|---------------|
|               |
|Guitarra 2     |
|---------------|
|---------------|
|---------------|
|---------------|
|--7-5-3-5-3-2--|
|---------------|


| 1:52 |
----                                                        1.
 Guitarra 1                                     .............|
|---------------------------------------------------------------|
|---------------------------------------------------------------|
|*----------5-9-5----------5-9-5----------4-7-4----------4-7-4-*|
|*-7--7-7-7-------7--7-7-7-------5--5-5-5-------5--5-5-5-------*|
|---------------------------------------------------------------|
|---------------------------------------------------------------|
|                                                           1.  |
|Guitarra 2                                     .............|  |
|---------------------------------------------------------------|
|---------------------------------------------------------------|
|*-------------------------------------------------------------*|
|*-------------------------------------------------------------*|
|--0--0-0-0-3-7-3-0--0-0-0-3-7-3----------2-5-2----------2-5-2--|
|--------------------------------3--3-3-3-------3--3-3-3--------|

            2.
   ..........|
 Guitarra 1
|---------------|
|---------------|
|--9-7-5-7-5-4--|
|---------------|
|---------------|
|---------------|
|               |
|Guitarra 2     |
|---------------|
|---------------|
|---------------|
|---------------|
|--7-5-3-5-3-2--|
|---------------|


| 2:01 |
Puente del solo de violin
-------------------------
 Guitarra 1
|---------------------------------------------------|
|---------------------------------------------------|
|*-------------------5-7-9-------------------9-7-5--|
|*-7-7-7-7-7-7-7-7-7-------7-7-7-7-7-7-7-7-7--------|
|---------------------------------------------------|
|---------------------------------------------------|
|                                                   |
|Guitarra 2                                         |
|---------------------------------------------------|
|---------------------------------------------------|
|*--------------------------------------------------|
|*--------------------------------------------------|
|--0-0-0-0-0-0-0-0-0-3-5-7-0-0-0-0-0-0-0-0-0-7-5-3--|
|---------------------------------------------------|
   PM.............................................

|---------------------------------------------------|
|---------------------------------------------------|
|--------------------4-5-7-------------------7-5-4-*|
|--5-5-5-5-5-5-5-5-5-------5-5-5-5-5-5-5-5-5-------*|
|---------------------------------------------------|
|---------------------------------------------------|
|                                                   |
|Guitarra 2                                         |
|---------------------------------------------------|
|---------------------------------------------------|
|--------------------------------------------------*|
|--------------------------------------------------*|
|--------------------2-3-5-------------------5-3-2--|
|--3-3-3-3-3-3-3-3-3-------3-3-3-3-3-3-3-3-3--------|
   ...............................................


| 2:13 |
Solo Violin (Guitarras 1 y 2)
-----------
|-----------------------------------------------|
|-----------------------------------------------|
|-----------------------------------------------|
|--9---------------------9-----------9--9--7----|
|--7-7-7-7-7-7-7-7-7-7-7-7---7-7-7-7-7--7--5----|
|-----------------------------------------------|
     PM.................     PM.....

|-----------------------------------------------|
|-----------------------------------------------|
|-----------------------------------------------|
|----------7--7--5-----------7-7----------------|
|--5-5-5-5-5--5--3---3-3-3-3-5-5----------------|
|-----------------------------------------------|
   PM.....           PM.....

|----------------------------------------------------------|
|----------------------------------------------------------|
|----------------------------------------------------------|
|--9----------9----------9----------9--9--7----------7--7--|
|--7--7-7-7-7-7--7-7-7-7-7--7-7-7-7-7--7--5--5-5-5-5-5--5--|
|----------------------------------------------------------|
      PM.....    PM.....    PM.....          PM.....

Guitarra 1
|------------------------------|
|------------------------------|
|--9-7----9--------------------|
|------10---10-9-10-9-7-9-7-5--|
|------------------------------|
|------------------------------|


| 2:26 |
Puente del solo se guitarra (Guitarras 1 y 2)
---------------------------
|---------------------------------------------------------------------|
|-------------h---------p---------------------------------------------|
|--\17--17--15-17-15--17-15---------------15-15-15-17-17-17-18-18-18--|
|---------------------------18---17-17-17-----------------------------|
|---------------------------------------------------------------------|
|---------------------------------------------------------------------|

                                         rake  /
                                            /  |
|----------------------------------------/--|-16-15----p-------|
|----------------------------------------|-16--------18-16-18--|
|--17-15----15-17-15---------\17-17-17--17---------------------|
|--------18----------18----------------------------------------|
|--------------------------------------------------------------|
|--------------------------------------------------------------|

|--18-18-18-16-16-16-15-15-15-----------16-15----------15-----|
|-----------------------------18-18-18--------18-16-18----18--|
|-------------------------------------------------------------|
|-------------------------------------------------------------|
|-------------------------------------------------------------|
|-------------------------------------------------------------|



| 2:38 |
Solo
----
 Guitarra 1
|------------------------------------------------------------------|
|--16/(18)-(18)-(18)-16-16/(18)-(18)-(18)-16-16/(18)-(18)-(18)-16--|
|------------------------------------------------------------------|
|------------------------------------------------------------------|
|------------------------------------------------------------------|
|------------------------------------------------------------------|
|                                                                  |
|Guitarra 2                                                        |
|------------------------------------------------------------------|
|------------------------------------------------------------------|
|------------------------------------------------------------------|
|----9--------------------9--------------------9-------------------|
|----7------7----7---7----7------7----7---7----7------7----7---7---|
|------------------------------------------------------------------|
            PM........           PM........           PM........

 Guitarra 1
|---------------------------|
|--16/(18)-16/(18)-16/(18)--|
|---------------------------|
|---------------------------|
|---------------------------|
|---------------------------|
|                           |
|Guitarra 2                 |
|---------------------------|
|---------------------------|
|---------------------------|
|----9-------9-------9------|
|----7-------7-------7------|
|---------------------------|

 Guitarra 1
|------------------------------------------------------------------|
|--18/(20)-(20)-(20)-18-18/(20)-(20)-(20)-18-18/(20)-(20)-(20)-18--|
|------------------------------------------------------------------|
|------------------------------------------------------------------|
|------------------------------------------------------------------|
|------------------------------------------------------------------|
|                                                                  |
|Guitarra 2                                                        |
|------------------------------------------------------------------|
|------------------------------------------------------------------|
|------------------------------------------------------------------|
|----7--------------------7--------------------7-------------------|
|----5------5----5---5----5------5----5---5----5------5----5---5---|
|------------------------------------------------------------------|
            PM........           PM........           PM........

 Guitarra 1
|---------------------------|
|--18/(20)-18/(20)-18/(20)--|
|---------------------------|
|---------------------------|
|---------------------------|
|---------------------------|
|                           |
|Guitarra 2                 |
|---------------------------|
|---------------------------|
|---------------------------|
|----7-------7-------7------|
|----5-------5-------5------|
|---------------------------|

Este solo esta en la escala de C Mayor, a si es que podeis sacar el punteo
rapido que no esta aqui a partir de esta escala.

| 2:44 |
 Guitarra 1
|---------------------------------------------------|
|---------------------------------------------------|
|---------------    punteo rapido    ---------------|
|---------------------------------------------------|
|---------------------------------------------------|
|---------------------------------------------------|
|                                                   |
|Guitarra 2                                         |
|---------------------------------------------------|
|---------------------------------------------------|
|---------------------------------------------------|
|---------------------------------------------------|
|--0-0-0-0-0-0-0-0-0-3-5-7-0-0-0-0-0-0-0-0-0-7-5-3--|
|---------------------------------------------------|
   PM.............................................

 Guitarra 1
|-----------------------10-8-7-8-7-8-10-8-7---------|
|------------h--p---------------------------10-8-10-|
|--10---9---9-10-9----------------------------------|
|---------------------------------------------------|
|---------------------------------------------------|
|---------------------------------------------------|
|                                                   |
|Guitarra 2                                         |
|---------------------------------------------------|
|---------------------------------------------------|
|---------------------------------------------------|
|---------------------------------------------------|
|--------------------2-3-5-------------------5-3-2--|
|--3-3-3-3-3-3-3-3-3-------3-3-3-3-3-3-3-3-3--------|
   PM.............................................

 Guitarra 1
|---------------------------------------------------|
|--10------8------------p---------------------------|
|-----------------9----9-10----9----9---------------|
|---------------------------------------------------|
|---------------------------------------------------|
|---------------------------------------------------|
|                                                   |
|Guitarra 2                                         |
|---------------------------------------------------|
|---------------------------------------------------|
|---------------------------------------------------|
|---------------------------------------------------|
|--0-0-0-0-0-0-0-0-0-3-5-7-0-0-0-0-0-0-0-0-0-7-5-3--|
|---------------------------------------------------|
   PM.............................................

 Guitarra 1
|----------------------------------------------------|
|--8--------------------------------------7----------|
|----10-9-10-9-7-9-10-9-7--7-9-10-10-9-10---10-9-7-9-|
|----------------------------------------------------|
|----------------------------------------------------|
|----------------------------------------------------|
|                                                    |
|Guitarra 2                                          |
|----------------------------------------------------|
|----------------------------------------------------|
|----------------------------------------------------|
|----------------------------------------------------|
|--------------------2-3-5-0-2-3-3-2-3-5-3-2-0-2-----|
|--3-3-3-3-3-3-3-3-3---------------------------------|
   PM...........................................



| 2:57 |
Riff 2
------
 Guitarra 1
|------------------------------------------------------------------|
|------------------------------------------------------------------|
|------------------------------------------------------------------|
|--2---------------2-----------------------------------------------|
|--0--0-0-0-3-7-3--0--0-0-0-3-7-3--5--------2-5-2--5--------2-5-2--|
|----------------------------------3--3-3-3--------3--3-3-3--------|
      PM.........     PM.........     PM.........     PM.........

 Guitarras 1 y 2
|------------------------------------------------------------------|
|------------------------------------------------------------------|
|------------------------------------------------------------------|
|--2---------------2---2-------------------------------------------|
|--0--0-0-0-3-7-3--0---0--0-3-7-3--5--------2-5-2--5---5----2-5-2--|
|----------------------------------3--3-3-3--------3---3--3--------|
      PM.........         PM.....     PM.........         PM.....



| 3:07 |
----                                                        1.
 Guitarra 1                                     .............|
|---------------------------------------------------------------|
|---------------------------------------------------------------|
|*----------5-9-5----------5-9-5----------4-7-4----------4-7-4-*|
|*-7--7-7-7-------7--7-7-7-------5--5-5-5-------5--5-5-5-------*|
|---------------------------------------------------------------|
|---------------------------------------------------------------|
|                                                           1.  |
|Guitarra 2                                     .............|  |
|---------------------------------------------------------------|
|---------------------------------------------------------------|
|*-------------------------------------------------------------*|
|*-------------------------------------------------------------*|
|--0--0-0-0-3-7-3-0--0-0-0-3-7-3----------2-5-2----------2-5-2--|
|--------------------------------3--3-3-3-------3--3-3-3--------|

            2.
   ..........|
 Guitarra 1
|---------------|
|---------------|
|--9-7-5-7-5-4--|
|---------------|
|---------------|
|---------------|
|               |
|Guitarra 2     |
|---------------|
|---------------|
|---------------|
|---------------|
|--7-5-3-5-3-2--|
|---------------|


| 3:16 |
Am
Viendose sumido en tales pensamientos
        G           D
Don Quijote no acertaba a ver
Am
que la destinataria de tanto halago
          G         D
no era quien creia ver.

PM
Am
Era Maritornes la moza asturiana
          G                         D
tuerta de un ojo y del otro no muy sano
Am
que yendo al encuentro de su amante arriero,
 G          D
se topo con �l


| 3:36 |
C            G            A
Porque al rozarte siento miedo, amor,    |------------------------------|
                                         |------------------------------|
                                         |------------------------------|
                                         |---------------------------5--|
                                         |--0-0-0-3-7-3-0--0-0-0-3-0-3--|
                                         |------------------------------|
C         G
de despertar y no oir tu voz.            |-------------|
                                         |-------------|
                                         |-------------|
                                         |-------------|
                                         |--0-0-3-2-0--|
                                         |-------------|
C            G             Am
Y que al llegar el alba a tu ventana,    |------------------------------|
                                         |------------------------------|
                                         |------------------------------|
                                         |---------------------------5--|
                                         |--0-0-0-3-7-3-0--0-0-0-3-0-3--|
                                         |------------------------------|
C        G                 Am
abra los ojos y solo este yo.

|-------------------------------------------------------------|
|-------------------------------------------------------------|
|-------------------------------------------------------------|
|--------------------------0--------------0------------0------|
|--0-0-3-0--0-0-3-0--0-2-3---3-2-0--0-2-3---3-2----2-3---3-2--|
|-----------------------------------------------3-------------|


| 3:54 |
C            G            A
Porque al rozarte siento miedo, amor,    |------------------------------|
                                         |------------------------------|
                                         |------------------------------|
                                         |---------------------------5--|
                                         |--0-0-0-3-7-3-0--0-0-0-3-0-3--|
                                         |------------------------------|
C         G
de despertar y no oir tu voz.            |-------------|
                                         |-------------|
                                         |-------------|
                                         |-------------|
                                         |--0-0-3-2-0--|
                                         |-------------|
C            G             Am
Y que al llegar el alba a tu ventana,    |------------------------------|
                                         |------------------------------|
                                         |------------------------------|
                                         |---------------------------5--|
                                         |--0-0-0-3-7-3-0--0-0-0-3-0-3--|
                                         |------------------------------|
C        G                 Am
abra los ojos y solo este yo.

|-------------------------------------------------------------|
|-------------------------------------------------------------|
|-------------------------------------------------------------|
|--------------------------0--------------0------------0------|
|--0-0-3-0--0-0-3-0--0-2-3---3-2-0--0-2-3---3-2----2-3---3-2--|
|-----------------------------------------------3-------------|



| 4:13 |
Fin (Guitarras 1 y 2)
---        3 veces
|-----------------|-----------|
|-----------------|-----------|
|*---------------*|-----------|
|*---------------*|-----------|
|-----2-3-5--3-2--|--0-0---0--|
|--3--------------|------3----|


AGRADECER CUESTA NADA





Comments


Popular Mago De Oz tabs & chords
El Santo Grial 2 Bass Tabs
El Balsamo De Fierabras Tabs
El Callejon Del Infierno Intro Tabs
La Rosa De Los Vientos Tabs
La Rosa De Los Vientos 1 Tabs
La Santa Compaa Tabs
Molinos De Viento (Solo) Tabs
Te Guardo Un Beso Por Si Lo Quieres Intro Tabs
Volaverunt Opus 666 Tabs
Creo Ukulele


Song lyrics



↑ Back to top | Tablatures and chords are parodies/interpretations of the original songs. You may use it for private study, scholarship, research or language learning purposes only
© 2014 AZChords.com Contact us | Privacy policy | DMCA | Add/correct tabs | Request tabs | Top 50 tabs