>
 >
La Rosa De Los Vientos

La Rosa De Los Vientos Guitar Tabs

Mago De Oz - La Rosa De Los Vientos chords, tabs, tablatures, lyrics

Guitar lessons | Add/correct | Request | Top 50 tabs Artists:  A B C D E F G H I J K L M N O P Q R S T U V W X Y Z 0-9

La Rosa De Los Vientos Guitar Tabs – Mago De Oz

CD, Sheet music, Poster

Do you like La Rosa De Los Vientos? Share with your friends now
ChordsTabsTabs v2Tabs v3Ukulele
INTRO
            C         G         a
e:--------------------3---------------------0--|
B:----------1---------0---------1-----------1--|
G:*-----------------0---------0-2-------2-----*|
D:*---------------2---------0-------2---------*|
A:--2---3---3---------2---------0--------------|
E:---------------------------------------------|

            F         G         a
e:--------------------3---------------------0--|
B:--3---1---1---------0---------1-----------1--|
G:*---------2-------2---------0-2-------2-----*|
D:*---------------3---------0-------2---------*|
A:----------3---------2---------0--------------|
E:---------------------------------------------|

            C         G         a
e:--------------------3-----------------0------|
B:----------1---------0---------1---1-------1h0|
G:*-------------0---0-----0---0-2-----2---2---*|
D:*-----------2---2-----0---0-----2-----------*|
A:--2-p-3---3---------2---------0--------------|
E:---------------------------------------------|

            F         G         a
e:--------------------3-----------------0------|
B:--3-h-1---1---------0---------1---1-------1h0|
G:*---------2---2---2-----0---0-2-----2---2---*|
D:*-----------3---3-----0---0-----2-----------*|
A:----------3---------2---------0--------------|
E:---------------------------------------------|


VERSO I
         C       G       a       e
e:---------------3---3-------------------0-----|
B:-------1---1---0---0---1---1---0---0---------|
G:*------0---0---0---0---2---2---0-----0---0---|
D:*----------------------2---2---2-2-----------|
A:-0--2--3---3---2---2---0---0---2-------------|
E:---------------------------------------------|

     F           G       C       G
e:---1-------1---3---3-----------3-------0-----|
B:---------------0---0---1---1---0---0---------|
G:---2-------2---0---0---0---0---0-----0---0---|
D:---------------------------------0-----------|
A:---3-------3---2---2---2---2---2-------------|
E:---------------------------------------------|

       C         G        a        e
e:---------------3-----------------------------|
B:------1-----1--0-----0--1-----1--0-----0---0-|
G:------0---0----0---0----2---2----0---0---0---|
D:--------2--------0------2-2------2-2---------|
A:---2--3--------2--------0--------2-----------|
E:---------------------------------------------|

     F        G        C       G
e:---1--------3------------0---3-------3-------|
B:---------1--0-----0--1---1---0---0-------0---|
G:---2---2----0---0----0-------0-----0---0---0*|
D:-----2--------0----------2-----0------------*|
A:---3--------2--------3-------2---------------|
E:---------------------------------------------|

VESO II
         C     e     a     G
e:----------0-----0-----0--3----------3--------|
B:-------1--1--0--0--1--1--0------0-------0----|
G:*------0-----0-----2--2--0---0----0---0---0--|
D:*---------2-----2-----2----0---0-------------|
A:-2--3--3-----2-----0--0--2----------0--------|
E:---------------------------------------------|

         C       F       G
e:-----------------------3---------3---------3-|
B:-------1-------1-------0-------0---0---0-----|
G:-------0---0---2---2---0---0-------------0---|
D:-----------2-------3-----0---0-------0-------|
A:-3--2--3-------3-------2---------0-----0---0-|
E:---------------------------------------------|

         C        G        a        e
e:-------0-----0--3-----3--0-----0--0-----0----|
B:-3--1--1-----1--0-----0--1-----1--0-----0----|
G:-------0-----0--0-----0--2-----2--0-----0----|
D:----------2--------0--------2--------2-------|
A:-------3--------2--------0--------2----------|
E:---------------------------------------------|

      F        G        a
e:----1-----1--3----3---0---------0---------0--|
B:----1-----1--0----0---1-------1---1---1------|
G:----2-----2--0----0---2---2-------------2---*|
D:-------2----------------2---2-------2-------*|
A:----3--------2----2---0---------0-----0---0--|
E:---------------------------------------------|

ESTRIBILLO
   asus4 a       Dsus4     a
e:----------------3-----3-----------2----------|
B:--3h1--1-----1--3--------1-----1-------------|
G:-------2-----------2-----2--------------2----|
D:--2-------2-----0-----------2----------------|
A:-------0-----------------0-----------0-------|
E:---------------------------------------------|

   asus4 a       asus4     a
e:----------------------------------2----------|
B:--3h1--1-----1--3-----3--1-----1-------------|
G:-------2--------2--------2--------------2----|
D:--2-------2--------2--------2----------------|
A:-------0--------0--------0-----------0-------|
E:---------------------------------------------|

   asus4 a       Dsus4     a
e:----------------3-----3-----------2----------|
B:--3h1--1-----1--3--------1-----1-----------1-|
G:-------2-----------2-----2--------------2----|
D:--2-------2-----0-----------2----------------|
A:-------0-----------------0-----------0-------|
E:---------------------------------------------|

   F           G           a
e:----------1-----------3-----------0--------0-|
B:-1--------1--0--------0--1--------1--------1-|
G:-2-----2-----0-----0-----2-----2--------2----|
D:----3-----------0-----------2--------2-------|
A:-3-----------2-----------0-------------------|
E:---------------------------------------------|

VERSO I
         C       G       a       e
e:---------------3---3-------------------0-----|
B:-------1---1---0---0---1---1---0---0---------|
G:*------0---0---0---0---2---2---0-----0---0---|
D:*----------------------2---2---2-2-----------|
A:-0--2--3---3---2---2---0---0---2-------------|
E:---------------------------------------------|

     F           G       C       G
e:---1-------1---3---3-----------3-------0-----|
B:---------------0---0---1---1---0---0---------|
G:---2-------2---0---0---0---0---0-----0---0---|
D:---------------------------------0-----------|
A:---3-------3---2---2---2---2---2-------------|
E:---------------------------------------------|

       C         G        a        e
e:---------------3-----------------------------|
B:------1-----1--0-----0--1-----1--0-----0---0-|
G:------0---0----0---0----2---2----0---0---0---|
D:--------2--------0------2-2------2-2---------|
A:---2--3--------2--------0--------2-----------|
E:---------------------------------------------|

     F        G        C       G
e:---1--------3------------0---3-------3-------|
B:---------1--0-----0--1---1---0---0-------0---|
G:---2---2----0---0----0-------0-----0---0---0*|
D:-----2--------0----------2-----0------------*|
A:---3--------2--------3-------2---------------|
E:---------------------------------------------|

VESO II
         C     e     a     G
e:----------0-----0-----0--3----------3--------|
B:-------1--1--0--0--1--1--0------0-------0----|
G:*------0-----0-----2--2--0---0----0---0---0--|
D:*---------2-----2-----2----0---0-------------|
A:-2--3--3-----2-----0--0--2----------0--------|
E:---------------------------------------------|

         C       F       G
e:-----------------------3---------3---------3-|
B:-------1-------1-------0-------0---0---0-----|
G:-------0---0---2---2---0---0-------------0---|
D:-----------2-------3-----0---0-------0-------|
A:-3--2--3-------3-------2---------0-----0---0-|
E:---------------------------------------------|

         C        G        a        e
e:-------0-----0--3-----3--0-----0--0-----0----|
B:-3--1--1-----1--0-----0--1-----1--0-----0----|
G:-------0-----0--0-----0--2-----2--0-----0----|
D:----------2--------0--------2--------2-------|
A:-------3--------2--------0--------2----------|
E:---------------------------------------------|

      F        G        a
e:----1-----1--3-----1--0---------0---------0--|
B:----1-----1--0-----1--1-------1---1---1------|
G:----2-----2--0-----2--2---2-------------2---*|
D:-------2--------2-------2---2-------2-------*|
A:----3--------2--------0---------0-----0---0--|  X3
E:---------------------------------------------|

      F        G        a
e:----1-----1--3-----1--0---------0---------0--|
B:----1-----1--0-----1--1-------1---1---1------|
G:*---2-----2--0-----2--2---2-------------2---*|
D:*------2--------2-------2---2-------2-------*| Aqui disminulle el tempo
A:----3--------2--------0---------0-----0---0--|
E:---------------------------------------------|

y mienras el volumen va bajando.........

         C     e     a     G
e:----------0-----0-----0--3----------3--------|
B:-------1--1--0--0--1--1--0------0-------0----|
G:-------0-----0-----2--2--0---0----0---0---0--|
D:----------2-----2-----2----0---0-------------|
A:-2--3--3-----2-----0--0--2----------0--------|
E:---------------------------------------------|

         C       F       G
e:-----------------------3---------3---------3-|
B:-------1-------1-------0-------0---0---0-----|
G:-------0---0---2---2---0---0-------------0---|
D:-----------2-------3-----0---0-------0-------|
A:-3--2--3-------3-------2---------0-----0---0-|
E:---------------------------------------------|

         C        G        a        e
e:-------0-----0--3-----3--0-----0--0-----0----|
B:-3--1--1-----1--0-----0--1-----1--0-----0----|
G:-------0-----0--0-----0--2-----2--0-----0----|
D:----------2--------0--------2--------2-------|
A:-------3--------2--------0--------2----------|
E:---------------------------------------------|

      F        G        a
e:----1-----1--3----3---0---------0---------0--|
B:----1-----1--0----0---1-------1---1---1------|
G:----2-----2--0----0---2---2-------------2----|
D:-------2----------------2---2-------2--------|
A:----3--------2----2---0---------0-----0---0--|
E:---------------------------------------------|





Comments


Popular Mago De Oz tabs & chords
Fiesta Pagana Chords
Hasta Que Tu Muerte Nos Separe Chords
El Que Quiera Entender Que Entienda Tabs
El SeñOr De Los Gramillos Tabs
La Costa Del Silencio Tabs
M¡S Que Una IntenciãN Tabs
Pensando En Ti 1 Tabs
Pensando En Ti 2 Tabs
Volaverunt Opus 666 Tabs
Creo Ukulele


Song lyrics



↑ Back to top | Tablatures and chords are parodies/interpretations of the original songs. You may use it for private study, scholarship, research or language learning purposes only
© 2014 AZChords.com Contact us | Privacy policy | DMCA | Add/correct tabs | Request tabs | Top 50 tabs