» » »

La Leyenda De La Mancha Tabs (ver.1)

Artists:  A B C D E F G H I J K L M N O P Q R S T U V W X Y Z # 

La Leyenda De La Mancha Tabs (ver.1)

Mago De Oz
Rating:
0/5 (0 votes)

Hard to play? Try these video lessons and learn fast.
                Riff 1
e|--------------------------------------|
b|--------------------------------------|
g|---2----------------------------------|
d|---2----------------------------------|
a|---0-0-0-0-3---0-0-0-3---0-0-0-3---0-0|
e|-3------------------------------------|
       pm...     pm...     pm...     pm.

  Riff 2
e|--------------------------------------|
b|---3----------------------------------|
g|---2----------------------------------|
d|---0-0-0-0-3---0-0-0-3---0-0-0-3---0-0|
a|-3------------------------------------|
e|--------------------------------------|
       pm...     pm...     pm...     pm.

  Riff 3
e|-----------------------|
b|-----------------------|
g|-----------------------|
d|-9-9-7--5-5-7--9-9-7--5|
a|-7-7-5--3-3-7--7-7-5--3|
e|-----------------------|

  Riff 4
e|--------|
b|----3---|
g|----2---|
d|-2--0--5|
a|-2-----5|
e|-0-----3|

	Riff 1 x2
	Cuentan las leyendas
	que hace tiempo
	Mucho tiempo atrás
	Donde la mente duerme
	Y nada es real
	Riff 2 x1
	Existe una tierra, al
	norte del tiempo
	Al este de la realidad
	Riff 1 x1
	Donde los libros
	Abren la puerta, a un
	mundo por llegar
	Riff 3
	Si duerme tu mente
	y dejas tu alma volar
	un caballero serás
	Y tus sueños se harán 
	realidad
	Riff 4 x3
	Hay un lugar donde el 
	sol
	Funde el amor y el dolor
	Busca en tu imaginación
	Abre tu corazón
	Riff 1 x2
	Escrito con tinta rosa
	De lagrimas de un juglar
	En los libros del tiempo
	En las páginas del llorar
	Riff 2 x1
	Hay una maldición
	"el sueño eterno
	dormirás
	Riff 1 x1
	si tu espada no sirve al
	honor"
	etc...
            
Hard to play? Try these video lessons and learn fast. | Correct




comments powered by Disqus
↑ Back to top | Tablatures and chords are parodies/interpretations of the original songs. You may use it for private study, scholarship, research or language learning purposes only