>
 >
La Leyenda De La Llorona

La Leyenda De La Llorona Guitar Tabs

Mago De Oz - La Leyenda De La Llorona chords, tabs, tablatures, lyrics

Guitar lessons | Add/correct | Request | Top 50 tabs Artists:  A B C D E F G H I J K L M N O P Q R S T U V W X Y Z 0-9

La Leyenda De La Llorona Guitar Tabs – Mago De Oz

CD, Sheet music, Poster

Do you like La Leyenda De La Llorona? Share with your friends now
Tabs
Flauta y Violin
00:00
e|-10-------------------------------------10-----------------11--10~-|
B|----11~--10-11-13~--11-10----10------------11~--10-11-13~----------|
G|--------------------------12----10-12~-----------------------------|
D|-------------------------------------------------------------------|
A|-------------------------------------------------------------------|
E|-------------------------------------------------------------------|

Flauta y Violin
00:11
e|-10-------------------------------------10----------------15-13-10~|
B|----11~--10-11-13~--11-10----10------------11~--10-11-13~----------|
G|--------------------------12----10-12~-----------------------------|
D|-------------------------------------------------------------------|
A|-------------------------------------------------------------------|
E|-------------------------------------------------------------------|

Flauta y Violin
00:21
e|-10-13-15~--13-15-10~-----10-13----------------------------------------|
B|-----------------------13-------11-10-------10-11-13-11-10-11~--10-11~-|
G|--------------------------------------12-12----------------------------|
D|-----------------------------------------------------------------------|
A|-----------------------------------------------------------------------|
E|-----------------------------------------------------------------------|

Flauta y Violin
00:32
e|-10-13-15~--13-15-10~-----10-13----------------------10-13-15--13--15~-|
B|-----------------------13-------11-10-------10-11-13-------------------|
G|--------------------------------------12-12----------------------------|
D|-----------------------------------------------------------------------|
A|-----------------------------------------------------------------------|
E|-----------------------------------------------------------------------|

Flauta
00:45 
   Gm                      A#        F     Gm                       A#     F Gm
e|-15-15-15-15-15-15-17-18-----------------15-15-15-15-15-15-17-18-/20-18----15|
B|-------------------------18-15----15-------------------------------------18--|
G|-------------------------------15----17~-------------------------------------|
D|-----------------------------------------------------------------------------|
A|-----------------------------------------------------------------------------|
E|-----------------------------------------------------------------------------|

Violin
00:53
   Gm                      A#        F     Gm                      A#     F Gm
e|-15-15-15-15-15-15-17-18-----------------15-15-15-15-15-15-17-18-17-18----15|
B|-------------------------18-15----15-----------------------------------18---|
G|-------------------------------15----17~------------------------------------|
D|----------------------------------------------------------------------------|
A|----------------------------------------------------------------------------|
E|----------------------------------------------------------------------------|

Violin                     Flauta
01:00
   A#                 F  F             Gm
e|-------10-10----------|-----------10-11-10-------10-|
B|-11/13-------11-------|13-13-13-13---------13-11----|
G|----------------12-10~|-----------------------------|
D|----------------------|-----------------------------|
A|----------------------|-----------------------------|
E|----------------------|-----------------------------|

Violin                     Flauta
01:04
   A#                 F  F             Gm
e|-------10-10----------|-----------------------------|
B|-11/13-------11-------|13-13-13-13-10---------------|
G|----------------12-10~|---------------10-/12~-------|
D|----------------------|-----------------------------|
A|----------------------|-----------------------------|
E|----------------------|-----------------------------|

Violin                     Flauta
01:07
   A#                 F  F             Gm
e|-------10-10----------|-----------10-11-10-------10-|
B|-11/13-------11-------|13-13-13-13---------13-11----|
G|----------------12-10~|-----------------------------|
D|----------------------|-----------------------------|
A|----------------------|-----------------------------|
E|----------------------|-----------------------------|

Violin                     Flauta y Violin
01:11
   A#                 F  F         A       F        A       F        A
e|-------10-10-10-13----|10---------------10---------------10-----------------|
B|-11/13-------------13-|---13-11-10---------13-11-10---------13-11-10--------|
G|----------------------|------------12-10------------12-10------------12-10--|
D|----------------------|-----------------------------------------------------|
A|----------------------|-----------------------------------------------------|
E|----------------------|-----------------------------------------------------|

Flauta y Violin
01:16
   Am                      
e|------------------------------------------------------------------|   |
B|-----13-12-10-------------10~-----13-12-10------10~---------------|   |
G|-9-9----------12--9-10-12-----9-9-----------12--------------------|   |
D|------------------------------------------------------------------|   |
A|------------------------------------------------------------------|   |
E|------------------------------------------------------------------|   |
                                                                    |   |
Flauta y Violin                                                     |x2 |
01:19                                                               |   |
   F                                 G                              |   |
e|-------------------------------10-12-10---------------------------|   |
B|-----13-12-10---------10-12-13----------13-12-10-12-13-12-10------|   |
G|-9-9----------12-9-12----------------------------------------12-9-|   |
D|------------------------------------------------------------------|   |
A|------------------------------------------------------------------|   |
E|------------------------------------------------------------------|   |
                                                                        |
Violin                                                                  |
01:30                                                                   |
   Am                                                                   |
e|------------------------------------------------------------------|   |
B|-10-10-10----------10-12-13-12-10---------------------------------|   |
G|----------9-9-9-12------------------------------------------------|   |
D|------------------------------------------------------------------|   |
A|------------------------------------------------------------------|   |x2
E|------------------------------------------------------------------|   |
                                                                    |   |
Violin                                                              |   |
01:32                                                               |   |
   Am                                                               |   |
e|----------------------------10-12-13------------------------------|   |
B|-10-10-10----------10-12-13---------------------------------------|   |
G|----------9-9-9---------------------------------------------------|   |
D|------------------------------------------------------------------|   |
A|------------------------------------------------------------------|   |
E|------------------------------------------------------------------|   |
                                                                    |   |
Violin                                                              |   |
01:34                                                               |x2 |
   F                                   G                            |   |
e|-17-17-17-12-12-12-15-13-12-10-12-10----10-12------10-------------|   |
B|-------------------------------------13------12-13----10----------|   |
G|---------------------------------------------------------12-10-9~-|   |
D|------------------------------------------------------------------|   |
A|------------------------------------------------------------------|   |
E|------------------------------------------------------------------|   |
   EN la segunda vuelta la flauta entra                             |   |

Violin                                                               
02:14                                                                
   Dm                                                                
e|----------------------------------10-------10-12-15-17-19-17--|
B|----------------------------10-12----10-12--------------------|
G|------------9-10-12-9-10-12-----------------------------------|
D|----9-10-12---------------------------------------------------|
A|-12-----------------------------------------------------------|
E|--------------------------------------------------------------|

Violin                                                               
02:18                                                              
   A#                                          C                      
e|-15-------17-17-15----15-17-15----15--------------------------|
B|----17-15----------19----------19----19-17-19-17-15-17-15-----|
G|----------------------------------------------------------17--|
D|--------------------------------------------------------------|
A|--------------------------------------------------------------|
E|--------------------------------------------------------------|
                                               |       x2       |
Violin                                         
02:21                                            
   Dm                                                               
e|--------------------15-----------------------------15------------|
B|---15--15--15-17-18----18-17-15---15--15--15-17-18----18-17-15---|
G|-17--16--14---------------------17--16--14---------------------17|
D|-----------------------------------------------------------------|
A|-----------------------------------------------------------------|
E|-----------------------------------------------------------------|

Violin                                                              
02:24                                                               
   A#                      C                                        
e|------------------------------------------------10-12-10-------10|
B|-13-12-15-13-12-10-12-10---------------10-12-13----------13-12---|
G|-------------------------12-9-10--9-10---------------------------|
D|-----------------------------------------------------------------|
A|-----------------------------------------------------------------|
E|-----------------------------------------------------------------|

Flauta 
02:28         
   Em                                                  C   
e|---------19-17-15-19-17-15---------------------15-17-19----|
B|-17~--17-------------------17~--17-15-17-19-19----------17-|
G|-----------------------------------------------------------|
D|-----------------------------------------------------------|
A|-----------------------------------------------------------|
E|-----------------------------------------------------------|

Flauta   
02:32  
   C                   D                                       
e|----------------------------------------------15-15-17-19--|
B|-17-17-15-------------------------15-17-17-19--------------|
G|----------17-17-16-14-14-16-17-17--------------------------|
D|-----------------------------------------------------------|
A|-----------------------------------------------------------|
E|-----------------------------------------------------------|

Flauta  
02:35 
   Em                                                  C    
e|-19-20~--20-19-19-17----17-19~--19-19-17----17-------------|
B|---------------------20------------------20----20-19-20-17-|
G|-----------------------------------------------------------|
D|-----------------------------------------------------------|
A|-----------------------------------------------------------|
E|-----------------------------------------------------------|

Flauta  
02:40  
          D      D      D      D     D     D
e|-----------17-19-17----------17-19-17--------------|
B|-17~-17-20----------20-17-20----------20-17--------|
G|---------------------------------------------------|
D|---------------------------------------------------|
A|---------------------------------------------------|
E|---------------------------------------------------|

Guitarra
02:43
e|-12---------------------------|----------------12-13-15-13-12------------|
B|----15-13-12----12----12-13~--|-------12-13-15----------------15-12-13---|
G|-------------14----14---------|-12-14------------------------------------|
D|------------------------------|------------------------------------------|
A|------------------------------|------------------------------------------|
E|------------------------------|------------------------------------------|
                                3x                                         |x2
e|------------------------------|------------------------------------------|
B|------------------------------|------------------------------------------|
G|--9---------------------------|---------------9-10-12-10-9---------------|
D|----12-10-9----9----9-10~-----|-------9-10-12--------------12-9-10-------|
A|------------12---12-----------|-10-12------------------------------------|
E|------------------------------|------------------------------------------|

Flauta y Violin
02:58
   Am                      
e|------------------------------------------------------------------|   
B|-----13-12-10-------------10~-----13-12-10------10~---------------|   
G|-9-9----------12--9-10-12-----9-9-----------12--------------------|   
D|------------------------------------------------------------------|   
A|------------------------------------------------------------------|   
E|------------------------------------------------------------------|   
                                                                    |   
Flauta y Violin                                                     |x2 
03:02                                                               |   
   F                                 G                              |   
e|-------------------------------10-12-10---------------------------|   
B|-----13-12-10---------10-12-13----------13-12-10-12-13-12-10------|   
G|-9-9----------12-9-12----------------------------------------12-9-|   
D|------------------------------------------------------------------|   
A|------------------------------------------------------------------|   
E|------------------------------------------------------------------|

Flauta y Violin
03:13
   Bm                      
e|-----------------------------------------------------------------------|   
B|-------15-14-12--------------12~-------15-14-12----12~-----------------|   
G|-11-11----------14--13-12-14-----11-11----------14---------------------|   
D|-----------------------------------------------------------------------|   
A|-----------------------------------------------------------------------|   
E|-----------------------------------------------------------------------|   
                                                                         |   
Flauta y Violin                                                          |x2 
03:16                                                                    |   
   G                                 A                                   |   
e|----------------------------------12-14-12-----------------------------|   
B|-------15-14-12----------12-14-15----------15-14-12-14-15-14-12--------|   
G|-11-11----------14-11-14----------------------------------------14-14~-|   
D|-----------------------------------------------------------------------|   
A|-----------------------------------------------------------------------|   
E|-----------------------------------------------------------------------|

Flauta   
03:31                                        
e|-13-13-12-13-12-10---------10-12-10~-|  |
B|-------------------10~--13-----------|  |
G|-------------------------------------|  |
D|-------------------------------------|  |
A|-------------------------------------|  |
E|-------------------------------------|  |
                                          |
Flauta                                    |x2  
03:36                                     |        
e|-13-13-12-13-12-10-------------------|  |
B|-------------------10~--13-12----10~-|  |
G|------------------------------12-----|  |
D|-------------------------------------|  |
A|-------------------------------------|  |
E|-------------------------------------|  |

Violin y Flauta  
03:53            
e|-------------------------------------|
B|-------------------------------------|
G|-12~--10~--7~--5~-3~---3~---5~---7~--|
D|-------------------------------------|
A|-------------------------------------|
E|-------------------------------------|

Flauta   
04:04            
e|-------------------------------------|
B|-------------------------------------|
G|-12~--10~--7~--5~-3~-3-2-0/2-0-2-3-3~|
D|-------------------------------------|
A|-------------------------------------|
E|-------------------------------------|

Violin 
04:04            
e|-------------------------------------|
B|-------------------------------------|
G|-12~--10~--7~--5~-3~--3~-2~--0~--2/3~|
D|-------------------------------------|
A|-------------------------------------|
E|-------------------------------------|

Jorge 





Comments


Popular Mago De Oz tabs & chords
El Cantar De La Luna Oscura Chords
La Rosa De Los Vientos Chords
Sin Ti Seria Silencio Chords
Desde Mi Cielo Tabs
El Cantar De La Luna Oscura (Intro) Tabs
Mi Nombre Es Rock N Roll Tabs
Molinos De Viento 5 Tabs
Molinos De Viento 4 Tabs
Tenucare Contral Bide Tabs
Lo Que El Viento Se Dejo Ukulele


Song lyrics



↑ Back to top | Tablatures and chords are parodies/interpretations of the original songs. You may use it for private study, scholarship, research or language learning purposes only
© 2014 AZChords.com Contact us | Privacy policy | DMCA | Add/correct tabs | Request tabs | Top 50 tabs