» » »

Mago De Oz, La Conquista Tabs (ver.1)

Artists:  A B C D E F G H I J K L M N O P Q R S T U V W X Y Z # 

La Conquista Tabs (ver.1)

Mago De Oz Tabs
 Rating:
4/5 (4 votes)
La Conquista lessons Tabs too difficult? Try these video lessons and learn fast
                [ _ [ guitarra ] _ ]

 introduccion  (2da gtr::A  G  F  F-G-A-B-C-B A  G  F  F-G-A-B-C-E)
                                   x3
------------------------------------|-------------------
------------------------------------|-------------------
------------7-----9-----10---9-7----|-------------------
-7-7-10-7-9-----7-----7----------10-|--------7--9--10-9-
------------------------------------|-8--10-------------
------------------------------------|-------------------

                                   x3
------------------------------------|-------------------
------------------------------------|-------------------
------------7-----9-----10---9-7----|-------------------
-7-7-10-7-9-----7-----7----------10-|--------7--9--10---
------------------------------------|-8--10-----------7-
------------------------------------|-------------------

 riff a
-------------------------------------------------------
-------------------------------------------------------
-------------------------------------------------------
---------0-2-3---------2-3-5---------2-3-5-------------
-3-x-x-x-------1-x-x-x-------5-x-x-x-------5-x-x-x-x-x-
-1-x-x-x-------3-x-x-x-------3-x-x-x-------3-x-x-x-x-x-
              x2
---------------|---------------
---------------|---------------
---------------|---------------
-5-5-5-5--4----|-7-7-7-7--5-4--
-3-3-3-3--2-5--|-5-5-5-5--3-2--
------------3--|---------------

 verso (la 2da vez con palm muting)
--------------------------------------------------------
--------------------------------------------------------
--------------------------------------------------------
---------------------------------------------|-7--7-5---|  x2
---------------------12-10------------- /
-13--13-12-10-12--13-------13-12-13-10-
{---------------------9--7------------}  x2
-12-12-12-12-10----10---10-10-10-10------------ /
----------------13------------------13-12-10---
{-9--9--9--9--7-----7----7--7--7--7-----------} <- 2da gtr.
{---------------10------------------10--9--7--}
-----------------------------------------------
-----------------------------------------------


-se repite verso especial
Y aunque nunca nunca quise ser como el
pedire que nunca mas se conquiste a tu pueblo jamas


-coro (se repite la primera parte)
quiero pedir perdon y conquistar tu corazon
quiero pedir perdon
y a ti te hablo hoy cuida y ama tu tradicion
hoy quiero tu perdon
si tu tierra amas no dejes por nada de cuidarla por favor


-se repite introduccion 2da parte (la ultima parte se repite 4 veces)


 outro
-----------------------------------------------
-----------------------------------------------
-----------------------------------------------
-----------------------------------------------
-7-7-5-7--7-7-5-7-------5~---------------------
-5-5-3-5--5-5-3-5-.....-3~---------------------

  Para comentarios y opiniones no duden en mensajearme a: 
            
Submit corrections

comments powered by Disqus
↑ Back to top | Mago De Oz Tabs for La Conquista. Lyrics for acoustic guitar and electric guitar. Tablatures and chords are parodies/interpretations of the original songs. You may use it for private study, scholarship, research or language learning purposes only