» » »

Mago De Oz, Jesus De Chamberi Tabs (ver.1)

Artists:  A B C D E F G H I J K L M N O P Q R S T U V W X Y Z # 

Jesus De Chamberi Tabs (ver.1)

Mago De Oz Tabs
Rating:
0/5 (0 votes)
Jesus De Chamberi lessons Tabs too difficult? Try these video lessons and learn fast
                3:42)
E|--------7-7h9~--9h10-9-7-----------7-7h9~--9h10-9-10-12-10p9-------------------|
B|------7------------------7~------7---------------------------12~---12/14-14/15-|
G|----7--------------------------7-----------------------------------------------|
D|--9--------------------------9-------------------------------------------------|
A|-------------------------------------------------------------------------------|
E|-------------------------------------------------------------------------------|

----------------------------------14p10-----------------------------------------|
---15/14-14/12-12~-10-8-7-7h8p7~--------12----------------7-7h8p7~--------------|
-------------------------------------------11---------6h7----------9-7-6-6h7-6~-|
----------------------------------------------12--------------------------------|
-------------------------------------------------14\----------------------------|
--------------------------------------------------------------------------------|
                                                                 8x
-------9-----10-----12b14~--10-9-9h10p9~----9-10-10h12--10p9-10~-10p9-10--|
-----------------------------------------12-------------------------------|
---4/6---6/7----7/9-------------------------------------------------------|
--------------------------------------------------------------------------|
--------------------------------------------------------------------------|
--------------------------------------------------------------------------|

  (4:11)
E|--14-10----10----10----10-15-10----10----10----17-12----12----12-------|
B|--------14----12----14----------14----12----14-------15----14----15-14-|
G|-----------------------------------------------------------------------|
D|-----------------------------------------------------------------------|
A|-----------------------------------------------------------------------|
E|-----------------------------------------------------------------------|

---17-15-14----15-14-------14-----------------------|-------|
------------17-------17-15----17-15-14-17-15-14-----|--14~--|
------------------------------------------------16--|-------|
----------------------------------------------------|-------|
----------------------------------------------------|-------|
----------------------------------------------------|-------|

  (4:32) Solo de guitarra electrica
E|--------------------------------------------------------------------------------|
B|---12~-12\--/12-12-12-12-12\--\12-12~--12~--12-12-12-12-12-12-12-12-12-12-12-12-|
G|--------------------------------------------------------------------------------|
D|--------------------------------------------------------------------------------|
A|--------------------------------------------------------------------------------|
E|--------------------------------------------------------------------------------|

-----------------------------------------------------------------------------------|
--10~------------------------------------------------------------------------------|
------12--11-12-12-14-12-11----11-12-11----11--------------------------------------|
----------------------------14----------14----14-12--11-12-14-12-11-11h12-11----11-|
-----------------------------------------------------------------------------14----|
-----------------------------------------------------------------------------------|

-----------------------------12-14-15-14-12----12h14p12----12---------------|
--------------------12-14-15----------------15----------15----15-14--12--14-|
-----------11-12-14---------------------------------------------------------|
--11-12-14------------------------------------------------------------------|
----------------------------------------------------------------------------|
----------------------------------------------------------------------------|

-------------------14p10----------10-14p10-----------------------------------------|
--14b15b14p12-14~--------12----12----------12----12--14-15-14~-14~-12--------------|
---^------------------------11----------------11-----------------------14-12-11-12-|
-----------------------------------------------------------------------------------|
-----------------------------------------------------------------------------------|
-----------------------------------------------------------------------------------|

--------------------------------------------------------------|----------------|
------------12------------------------------------------------|----------------|
---11-12-14----14-12-11-12-14-12-11----11h12p11---------------|--Revoltijo de--|
------------------------------------14----------14-12-11-12~--|-----escala-----|
--------------------------------------------------------------|--------*-------|
--------------------------------------------------------------|----------------|

--------------------------------------------------------------------------|
-----------------------10----10-------------10----------------------------|
-----6-7-9b11b9p7h9p7~-9b11--b9-p7---7-9b11----9b11b9p7---7—9b11b9p7---7~-|
---9-------------------------------9--------------------9------------9----|
--------------------------------------------------------------------------|
--------------------------------------------------------------------------|
muchas veces
-----------------|---17b19---|
---12-14-12-15---|-----------|
-----------------|-----------|
-----------------|-----------|
-----------------|-----------|
-----------------|-----------|

* - Escala usada en el revoltijo de Carlitos, improvisen algo, yo lo hago
----------------------------7-9-10---|
---------------------7-8-10----------|
---------------6-7-9-----------------|
---------5-7-9-----------------------|
---5-7-9-----------------------------|
-------------------------------------|
            

comments powered by Disqus
↑ Back to top | Mago De Oz Tabs for Jesus De Chamberi. Lyrics for acoustic guitar and electric guitar. Tablatures and chords are parodies/interpretations of the original songs. You may use it for private study, scholarship, research or language learning purposes only