>
 >
El Santo Grial

El Santo Grial Bass Tabs

Mago De Oz - El Santo Grial chords, tabs, tablatures, lyrics

Guitar lessons | Add/correct | Request | Top 50 tabs Artists:  A B C D E F G H I J K L M N O P Q R S T U V W X Y Z 0-9

El Santo Grial Bass Tabs – Mago De Oz

CD, Sheet music, Poster

Do you like El Santo Grial? Share with your friends now
Bass TabsBass Tabs v2Tabs
 EL SANTO GRIAL-MAGO DE OZ

JORGE ANDRES RIVEROS

|------------------------|
|------------------------|
|--6----6-5-3------------|
|----------------3-------|

guitar solo..

|----------------|
|----------------|
|--6-5-3---------|
|--------6-5-6-3-|

(LINEA 1)
|-------------------------------------------|
|-------------------------------------------|
|-------------------------------------3-----|
|-3---3-3-3-3-3--3-3-3-3-3--3-3-3-3-1---1-3-|

se repite 5 veces

|---------------|
|---------------|
|-6-5-3-------5-|
|-------6-5-6---|

guitar solo..

(LINEA 2)
|---------------------------|
|---------------------------|
|-------1---------3---3-1---|
|--3---------1------------3-|
2 veces lento

(LINEA 2 RAPIDO)
|-----------------------------------------|
|-----------------------------------------|
|----------11111111---------333333---3-1--|
|--33333333--------11111111-------------3-|
2 veces rapido

sigue el coro apenas termina la anterior

(CORO)
|-------------------------------------------|
|-------------------------------------------|
|--------------------------6-5-3------------|
|-3333333-6-3333333-6-3333-------3----------|
se repite 2 veces esta parte

|-------------------------------------------|
|-------------------------------------------|
|--------------------------6-5-3-5----5-----|
|-3333333-6-3333333-6-3333------------------|


despues del coro se repite
(LINEA 1)
(LINEA 2)

Y EL CORO TERMINA ASI:
|---------------------------------------------------------|
|-------------------------------------------4-4-4-7-7-7-7-|
|--------------------------6-5-3-5----5-5-5---------------|
|-3333333-6-3333333-6-3333--------------------------------|

(LINEA 3)
|--------------------------------------------|
|----------1-1-1-1---------------------------|
|------------------1-1-1-1-------------------|
|--3-3-3-3-----------------1-1-1-1-----------|
repite 2 veces

(LINEA 3 RAPIDO)
|---------------------------------------------|
|----------11111111---------------------------|
|------------------11111111-------------------|
|--33333333----------------11111111-----------|
repite 2 veces

|-------------------------------------------------------------------|
|----------1-1-1-1---------3-3-3-33-6-6-6-6-1-1-1-1-----------------|
|------------------1-1-1-1--------------------------1-1-1-1---------|
|--3-3-3-3--------------------------------------------------1-1-1-1-|

ahora se repite (LINEA 3 RAPIDO) 3 VECES

|------------------------------------------------------------------------|
|------------------1-1-1-1----------------------------1-1-1-1------------|
|--3-3-3-3-----------------1-1-1-1----3-3-3-3-----------------1-1-1-1----|
|----------4-4-4-4----------------------------4-4-4-4--------------------|

|--------------------------------------------------------------|
|------------------1-1-1-1-1-1-1-3-3-3-3-3-3-3-1---------------|
|------------------------------------------------3-3-3-3-3-3-3-|
|--3-3-3-3-3-3-3-3---------------------------------------------|
repite 2 veces

esta parte es muy rapida
(LINEA 4)
|--------------------------------------------------------|
|--------------------------------------------------------|
|----------66666666--------666655553333--------5555------|
|--33333333--------55556666------------66665555----3-----|
repite 2 veces

|-----------------------------------------|
|-----------------------------------------|
|--5---6-5-3---1232123--3---5-3-1-0121010-|
|-----------------------------------------|

violin solo..

|----------------------------------------|
|----------------------------------------|
|--5--2-3-4-55-3454353-------------------|
|----------------------------------------|

ahora (LINEA 4)

y termina asi:
|---------------------------------------------------------------------|
|---------------------------------------------------------------------|
|--5---6-5-3---1232123--3---5-3-1-0121010--1---3-1-0------------------|
|----------------------------------------------------3454353----------|

|-----------------------------------------|
|------------3-53-------------------------|
|------1-3-5-----53-----------------------|
|--3-5------------------------------------|
repite 2 veces

solo en bajo:
|-----------------------------------------------------------------|
|----------0-1-0-----------0---0-1-0---1-0-----0------------------|
|----0-1-3-------3-1-0---0-----------3-----3-1---3-1-0------------|
|--3-------------------3-------------------------------1-3----5---|

despues sigue el (CORO) terminando abajo
(LINEA 3)
(LINEA 3 RAPIDO)

|------------------------------------------------------------------------|
|------------------------------------------------------------------------|
|-------------------------6-5-3---------------------6-5-3----------------|
|--6-33333-6-33333-6-33333-----33333-6-33333-6-33333-----3-3-1-3---------|





Comments


Popular Mago De Oz tabs & chords
Ancha Es Castilla Metal Bass Tabs
El Santo Grial 2 Bass Tabs
El Lago Tabs
El SeñOr De Los Gramillos Tabs
Hasta Que Tu Muerte Nos Separe Tabs
La Danza Del Fuego 1 Tabs
La Rosa De Los Vientos 3 Tabs
La Santa Compaa Tabs
Maritormes Tabs
Judas Ukulele


Song lyrics



↑ Back to top | Tablatures and chords are parodies/interpretations of the original songs. You may use it for private study, scholarship, research or language learning purposes only
© 2014 AZChords.com Contact us | Privacy policy | DMCA | Add/correct tabs | Request tabs | Top 50 tabs