>
 >
El Cantar De La Luna Oscura

El Cantar De La Luna Oscura Guitar Tabs

Mago De Oz - El Cantar De La Luna Oscura chords, tabs, tablatures, lyrics

Guitar lessons | Add/correct | Request | Top 50 tabs Artists:  A B C D E F G H I J K L M N O P Q R S T U V W X Y Z 0-9

El Cantar De La Luna Oscura Guitar Tabs – Mago De Oz

CD, Sheet music, Poster

Do you like El Cantar De La Luna Oscura? Share with your friends now
ChordsTabsUkulele
Artista: Mägo de Oz
Canción: El Cantar De La Luna Oscura
Álbum: Jesús de Chamberí

Guitarra 1: eléctrica sin distorsión (la versión 2006 utiliza acústica)
Guitarra 2: eléctrica sin distorsión (la versión 2006 utiliza acústica)
Guitarra 3: eléctrica con distorción


Intro

Guitarra 1

                                                        ------
e|---1--------1h3--0--------|--------------0-----0-----|     |
B|---------3----------3-----|--3--------3-----1--------|     |
G|------2----------------0--|--------3-----------------| x2  |
D|---0----------------------|-----3--------------------|     |
A|-----------------3--------|--1-----------3-----------|     |
E|--------------------------|--------------------------|     |
                                                             |x2
e|---1--------1h3--0--------|--------------0-----0-----|     |
B|---------1----------1-----|--3--------3-----1--------|     |
G|------2----------------0--|--------3-----------------| x2  |
D|--------------------------|-----3--------------------|     |
A|-----------------3--------|--1-----------3-----------|     |
E|---1----------------------|--------------------------|     |
                                                        ------

e|---1----0--------|
B|-------------3---|
G|-----------------| x1
D|---0-------------|
A|--------3----1---|
E|-----------------|

Guitarra 2

e|--------5-----------|-------------------|
B|--6--8-----8--6--5--|------------5------|
G|--------------------|--7~--5--7-----7~--|
D|--------------------|-------------------|
A|--------------------|-------------------|
E|--------------------|-------------------|



e|---------5-----------|--10~--8-8--8~--|
B|--6~--8-----8--6--5--|----------------|
G|---------------------|----------------|
D|---------------------|----------------|
A|---------------------|----------------|
E|---------------------|----------------|



e|--10~--8------8~----------|----------------------------8--|
B|----------11------11--10--|--11--10--8--10--8--10--11-----|
G|--------------------------|-------------------------------|
D|--------------------------|-------------------------------|
A|--------------------------|-------------------------------|
E|--------------------------|-------------------------------|



e|--10~--8------8~----------|------8--10--12~--13----|
B|----------11------11--10--|--11--------------------|
G|--------------------------|------------------------|
D|--------------------------|------------------------|
A|--------------------------|------------------------|
E|--------------------------|------------------------|



e|--13~----12~----10~--|
B|---------------------|
G|---------------------|
D|---------------------|
A|---------------------|
E|---------------------|
Verso 1

Guitarra 1


Acordes (detrás del violín)
C- Dm- Dm- C-
Dm- F- C- Dm-
Dm- F- C- Dm-
Dm

Pequeña parte de violín y luego...

Dm             
Dm               C 
Es el país de la luna oscura
                 Dm
es la habitación deshabitada
               C
es la más bella criatura
                 Dm
es la dama descorazonada.
 
Dm               C
Apuestos galanes la cortejan
                   Dm
y aquellos que lo han conseguido
F                      C
con el paso del tiempo la dejan
                            Dm- C- Dm- C
y ella llorando escoge el olvido.



Coro 1

Guitarra 1

Dm              C
De olvido vive y de olvido muere
                      Dm 
como planta en jardín olvidado
F                  C
sabiendo que nadie la quiere
                       Dm
sabiendo que nadie la ha amado


Pos- coro

Guitarra 1

detrás del violín

Dm- C- Dm- Dm-
C- Dm- F- C-
Dm- F- C- Dm


Solo

Guitarra 1
Guitarra 3


e|------5----------------|-------------5/-----|
B|--------8-6-5----------|--------6-----------|
G|--------------7~-------|--------------------|
D|-----------------------|--------------------|
A|-----------------------|--------------------|
E|-----------------------|--------------------|



e|--------------10-13----12----10----|--12~-----15--15~-------|
B|-----------10----------------------|------------------------|
G|--------12-------------------------|------------------------|
D|-----------------------------------|------------------------|
A|-----------------------------------|------------------------|
E|-----------------------------------|------------------------|


        
e|------17----17----17---15---13--|--13h15h13----13h15h13--------------|
B|--------------------------------|-----------17----------17-15~-------|
G|--------------------------------|------------------------------------|
D|--------------------------------|------------------------------------|
A|--------------------------------|------------------------------------|
E|--------------------------------|------------------------------------|



e|--------------------------------------|
B|----13--------------------13----------|
G|----------15--14-12-14-15----15-14-12-|
D|--------------------------------------|
A|--------------------------------------|
E|--------------------------------------|



e|--------------12-13-12----------12-13-15-17-15-13-|
B|--------13-15----------15-13-15-------------------|
G|--14-15-------------------------------------------|
D|--------------------------------------------------|
A|--------------------------------------------------|
E|--------------------------------------------------|



e|--12-13-15-13-12----------------12-13-12----------|
B|-----------------15-13----13-15----------15-13----|
G|-----------------------15----------------------15-|
D|--------------------------------------------------|
A|--------------------------------------------------|
E|--------------------------------------------------|



e|--------------------12--------------|--------------------|
B|--------------13-15----15-15~-------|--15/---------------|
G|--14-12-14-15-----------------------|--------------------|
D|------------------------------------|--------------------|
A|------------------------------------|--------------------|
E|------------------------------------|--------------------|

Ahí ustedes le sacan el orden de los acordes durante el solo. Siguen siendo puros Dm, C y F.


Verso 2

Guitarra 1

Dm
Dm               C
es la inocencia perdida
               Dm
es la vejez negada
F                C
y unas lágrimas perdidas
               Dm     
María vive desesperada.


Coro 2

Solamente repitan el coro 1 dos veces.


Salida

Ahora repitan todo el intro completo

| /  slide up
| \  slide down
| h  hammer-on
| p  pull-off
| ~  vibrato
| +  harmonic
| x  Mute note
===============================================================================





Comments


Popular Mago De Oz tabs & chords
La Cantata Del Diablo Bass Tabs
Adios Dulcinea Chords
Hasta Que Tu Muerte Nos Separe Chords
La Rosa De Los Vientos Chords
Ancha Es Castilla 1 Tabs
El Cantar De La Luna Oscura (Intro) Tabs
El Rincon De Los Sentidos Tabs
La Cruz De Santiago Tabs
Satania Tabs
Sueos Dormidos Ukulele


Song lyrics



↑ Back to top | Tablatures and chords are parodies/interpretations of the original songs. You may use it for private study, scholarship, research or language learning purposes only
© 2014 AZChords.com Contact us | Privacy policy | DMCA | Add/correct tabs | Request tabs | Top 50 tabs