>
 >
El Callejon Del Infierno Intro

El Callejon Del Infierno Intro Guitar Tabs

Mago De Oz - El Callejon Del Infierno Intro chords, tabs, tablatures, lyrics

Guitar lessons | Add/correct | Request | Top 50 tabs Artists:  A B C D E F G H I J K L M N O P Q R S T U V W X Y Z 0-9

El Callejon Del Infierno Intro Guitar Tabs – Mago De Oz

CD, Sheet music, Poster

Do you like El Callejon Del Infierno Intro? Share with your friends now
Tabs
Guitar 1:

-----------------------------------------------------------------         -- |
-------------------------------------------6---------------------         -- |
---------------------------------------4-7---7-4-2-4-------------  X2     -- |
-------------------------------------6---------------------------         -- |
---------------------------------5-8-----------------------------         -- |
-5-5-5--5-5-5--5-5-5--5-5-5--4-7---------------------------------         -- |
                                                                           |
-----------------------------------------------------------------          |
-----------------------------------------------------------------          |
-----------------------------------------7-------------7---------          |
---------------------------------------9---9---------9-----------          |
----------------------------------8-11-------11-8-11-------------          |
-8-8-8--8-8-8--8-8-8--8-8-8--7-10--------------------------------          |
                                                                           |
-----------------------------------------------------------------         -- |
-----------------------------------------------------------------         -- |
----------------------------------------------7--------7---------         -- |
--------------------------------------------9--------9-----------         -- |
----------------------------------8-11-8-11-----8-11-------------         -- |
-8-8-8--8-8-8--8-8-8--8-8-8--7-10--------------------------------         -- |

Guitar 2

-----------------------------------------------------------------|
-----------------------------------------------------------------|
-----------------------------------------------------------------|
-7~--6/9-7~--6/9--10~-9/12--10~--9/14----------------------------|
-----------------------------------------------------------------|
-----------------------------------------------------------------|

-----------------------------------------------------------------|
-----------------------------------------------------------------|
-14~--13/16--14~--13/16--17~--16/19--17~-16/21-------------------|
-----------------------------------------------------------------|
-----------------------------------------------------------------|
-----------------------------------------------------------------|

Guitar 1

-15-12----------12--10-7-------7--12-8---------8--7-4-------4----|
-------13----13----------8---8---------10---10--------5---5------|
----------12---------------7--------------9-------------4--------|
-----------------------------------------------------------------|
-----------------------------------------------------------------|
-----------------------------------------------------------------|

-5-1-------1--8-5-------5--10-7-------7-5~-----------------------|
-----3---3--------6---6---------8---8----------------------------|
-------2------------5-------------7------------------------------|
-----------------------------------------------------------------|
-----------------------------------------------------------------|
-----------------------------------------------------------------|

-15-12----------12--10-7-------7--12-8---------8--7-4-------4----|
-------13----13----------8---8---------10---10--------5---5------|
----------12---------------7--------------9-------------4--------|
-----------------------------------------------------------------|
-----------------------------------------------------------------|
-----------------------------------------------------------------|

-5-4-5--7-5-7--8-7-8--10-8-10--12-10-8---------------------------|
---------------------------------------12-10-9-10----------------|
-----------------------------------------------------------------|
-----------------------------------------------------------------|
-----------------------------------------------------------------|
-----------------------------------------------------------------|

Guitar 2

-----------------------------------------------------------------|
-----------------------------------------------------------------|
-5-5------------------2------------------------------------------|
-5-5--5--7-7--2--3-3--2------------------------------------------|
-3-3--5--7-7--2--3-3--0------------------------------------------|
------3--5-5--0--1-1------4-4-4-4-4-4-5-5-5-5~-------------------|

-----------------------------------------------------------------|
-----------------------------------------------------------------|
-5-5-------------------------------------------------------------|
-5-5--5--7-7--2--------------------------------------------------|
-3-3--5--7-7--2--------0-0-0-------------------------------------|
------3--5-5--0--1-1-1-------4-4-4-7-7-7-4-4-4-0-0-0-5~----------|

Guitar 2

-----------------------------------------------------------------      -- |
-----------------------------------------------------------------      -- |
-------------------------------------------7--9------------------      -- |
-------------------------------------------7--9------------------      -- |
-------------------------------------------5--7------------------      -- |
-5-5-5--5-5-5--5-5-5--5-5-5--7-7-7--8-8-8------------------------      -- |
                                                                        |  X2
-----------------------------------------------------------------      -- |
-----------------------------------------------------------------      -- |
-----------------------------------------------------------------      -- |
-----------------------------------------------------------------      -- |
-----------------------------------------------------------------      -- |
-5-5-5--5-5-5--5-5-5--5-5-5--7-7-7--8-8-8--5-5-5-5-5-5-----------      -- |

-----------------------------------------------------------------|
-----------------------------------------------------------------|
-----------------------------------------------------------------|
-----------------------------------------------------------------|
-3-3-3--3-3-3----------------------------------------------------|
---------------3-3-3--3-3-3--5-5-5-5-5-5--0-0-0--0-0-0-----------|

-----------------------------------------------------------------|
-----------------------------------------------------------------|
-----------------------------------------------------------------|
-----------------------------------------------------------------|
---------------0-0-0--0-0-0--------------------------------------|
-1-1-1--1-1-1----------------4-4-4--4-4-4--5-5-5--5-5-5----------|

-----------------------------------------------------------------|
-----------------------------------------------------------------|
-----------------------------------------------------------------|
-----------------------------------------------------------------|
-3-3-3--3-3-3----------------------------------------------------|
---------------3-3-3--3-3-3--5-5-5--5-5-5--0-0-0--0-0-0----------|

-----------------------------------------------------------------|
-----------------------------------------------------------------|
-----------------------------------------------------------------|
-----------------------------------------------------------------|
--------0-0-0----------------------------------------------------|
-1-1-1---------4-4-4--7-7-7--4-4-4--0-0-0--5-5-5--5~-------------|

Violin

-----------8-12-8-----------------------8----8-10--12------------     -- |
--------10--------10---10-9-10-12-10-12---12---------------------     -- |
------9--------------9-------------------------------------------     -- |
-7-10------------------------------------------------------------     -- |
-----------------------------------------------------------------     -- |
-----------------------------------------------------------------     -- |
                                                                       |  X2
-----------8-12-8------------------------------------------------     -- |
--------10--------10---10-9--------------------------------------     -- |
------9--------------9------10-9-7-------------------------------     -- |
-7-10------------------------------10-9-7-6-7~-------------------     -- |
-----------------------------------------------------------------     -- |
-----------------------------------------------------------------     -- |


-15-12----------12--10-7-------7--12-8---------8--7-4-------4----|
-------13----13----------8---8---------10---10--------5---5------|
----------12---------------7--------------9-------------4--------|
-----------------------------------------------------------------|
-----------------------------------------------------------------|
-----------------------------------------------------------------|

-5-1-------1--8-5-------5--10-7-------7-5~-----------------------|
-----3---3--------6---6---------8---8----------------------------|
-------2------------5-------------7------------------------------|
-----------------------------------------------------------------|
-----------------------------------------------------------------|
-----------------------------------------------------------------|

-15-12----------12--10-7-------7--12-8---------8--7-4-------4----|
-------13----13----------8---8---------10---10--------5---5------|
----------12---------------7--------------9-------------4--------|
-----------------------------------------------------------------|
-----------------------------------------------------------------|
-----------------------------------------------------------------|

-5-4-5--7-5-7--8-7-8--10-8-10--12-10-8---------------------------|
---------------------------------------12-10-9-10----------------|
-----------------------------------------------------------------|
-----------------------------------------------------------------|
-----------------------------------------------------------------|
-----------------------------------------------------------------|





Comments


Popular Mago De Oz tabs & chords
Lo Que El Viento Se Dejo Chords
Sueos Dormidos Chords
El Angel Caido Tabs
El Cantar De La Luna Oscura (Intro) Tabs
El Pacto Tabs
In Memorian Intro Tabs
La Ultima Cena Tabs
Runa Llena Tabs
Dame Tu Amor Ukulele
Hasta Que El Cuerpo Aguante Ukulele


Song lyrics



↑ Back to top | Tablatures and chords are parodies/interpretations of the original songs. You may use it for private study, scholarship, research or language learning purposes only
© 2014 AZChords.com Contact us | Privacy policy | DMCA | Add/correct tabs | Request tabs | Top 50 tabs