» » »

Mago De Oz, El Arbol De La Noche Triste Tabs (ver.1)

Artists:  A B C D E F G H I J K L M N O P Q R S T U V W X Y Z # 

El Arbol De La Noche Triste Tabs (ver.1)

Mago De Oz Tabs
 Rating:
4/5 (4 votes)
El Arbol De La Noche Triste lessons Tabs too difficult? Try these video lessons and learn fast
1
                No estoy muy seguro en el intro de guitarra acústica 
pero ya les di la base así que sáquenlo como quieran

b = bend
r = release
* = raspar cuerda
x = palm mute
~ = usar la palanca
< > = armónicos

INTRO GUIT. ACÚSTICA
   A         2x  E         4x  A         2x     Armónicos   
e|-------0-----|-------0-----|-------0-----|--------------|
B|---1-0---0---|---------0---|---1-0---0---|--------------|
G|-----------2-|---0-------0-|-----------2-|--------------|
D|-------------|-----4-------|-------------|---<7>--------|
A|-0-----------|-------------|-0-----------|-------<7>----|
E|-------------|-0-----------|-------------|--------------|


INTRO GUIT. ELÉCTRICA
   A                        2x  F                        1x  A                      1x
e|----------------------------|----------------------------|--------------------------|------------------|
B|----------------------------|----------------------------|--------------------------|------------------|
G|----------------------------|----------------------------|--------------------------|---------5--------|
D|-7xx-7xx-7x---7xx-7xx-7x-xx-|-3xx-3xx-3x---3xx-3xx-3x-xx-|-7xx-7xx-7x---7xx-7xx-7x--|-5-7-7---5-7-7----|
A|-7xx-7xx-7x---7xx-7xx-7x-xx-|-3xx-3xx-3x---3xx-3xx-3x-xx-|-7xx-7xx-7x---7xx-7xx-7x--|-5-7-7---3-7-7----|
E|-5xx-5xx-5x---5xx-5xx-5x-xx-|-1xx-1xx-1x---1xx-1xx-1x-xx-|-5xx-5xx-5x---5xx-5xx-5x--|-3-5-5-----5-5----|

VERSO 1
     A                       2x   D   D    A
e|------------------------------|---|----|------------------|
B|------------------------------|---|----|------------------|
G|------------------------------|-7-|----|------------------|
D|---7xx-7xx-7x---7xx-7xx-7x-xx-|-7-|----|-7x-7x-7x-7x-7x---|
A|---7xx-7xx-7x---7xx-7xx-7x-xx-|-5-|-5~-|-7x-7x-7x-7x-7x---|
E|-*-5xx-5xx-5x---5xx-5xx-5x-xx-|---|----|-5x-5x-5x-5x-5x---|

FILL
   A                        2x
e|----------------------------|
B|----------------------------|
G|----------------------------|
D|-7xx-7xx-7x---7xx-7xx-7x-xx-|
A|-7xx-7xx-7x---7xx-7xx-7x-xx-|
E|-5xx-5xx-5x---5xx-5xx-5x-xx-|

VERSO 2
   A                        2x   D   D    A
e|-----------------------------|---|----|------------------|
B|-----------------------------|---|----|------------------|
G|-----------------------------|-7-|----|------------------|
D|---7xx-7xx-7br---7xx-7xx-7br-|-7-|----|-7x-7x-7x-7x-7x---|
A|---7xx-7xx-------7xx-7xx-----|-5-|-5~-|-7x-7x-7x-7x-7x---|
E|-*-5xx-5xx-------5xx-5xx-----|---|----|-5x-5x-5x-5x-5x---|

INTERLUDIO
   C   G   A   F            G             C    G    A    F    G 
e|---|---|---|--------------------------|----|----|----|----------|
B|---|---|---|--------------------------|----|----|----|----------|
G|-5-|---|---|--------------------------|-5x-|----|----|----------|
D|-5-|-5-|-7-|-3x-3x-3x-3x--5x-5x-5x-5x-|-5x-|-5x-|-7x-|-3x---5x--|
A|-3-|-5-|-7-|-3x-3x-3x-3x--5x-5x-5x-5x-|-3x-|-5x-|-7x-|-3x---5x--|
E|---|-3-|-5-|-1x-1x-1x-1x--3x-3x-3x-3x-|----|-3x-|-5x-|-1x---5x--|
|__________________2x________________| |__________3x__________|

SOLO 
     A                                    F
e|-------------------------------------|------------------------------------|
B|-------------------------------------|------------------------------------|
G|---7b9-7b9~---b7p5---5-7-7b9-7~--7p5-|----5-------------------------------|
D|-------------------7-----------------|--7---7--5---5----------------------|
A|-------------------------------------|-----------7---7-5---5~-------------|
E|-------------------------------------|-------------------8------8-5~------|
   G                                                 A
e|-------------------------------------------------|-----------------12h15p--
B|---10-12-12h13-12~--------12-13-13h15~--15p13p12-|-------------13----------
G|-9---------------------14------------------------|-14~------14-------------
D|--------------------14---------------------------|-------14----------------
A|-------------------------------------------------|-------------------------
E|-------------------------------------------------|-------------------------
                             D
e|---12------------------|--13--12--10--12--12p10----10----------------------
B|-----13----------------|------------------------13----13-12-10-12h13-12~---
G|---------14-----14-14~-|---------------------------------------------------
D|------------14---------|---------------------------------------------------
A|-----------------------|---------------------------------------------------
E|-----------------------|---------------------------------------------------
         C                                                       A
e------|------------------------------------------10-12-13-15--15b17---15~---|
B------|---------------------------------10-12-13----------------------------|
G------|-------------------------9-10-12-------------------------------------|
D------|-----------------9-10-12---------------------------------------------|
A------|---------8-10-12-----------------------------------------------------|
E---x\-|-8-10-12-------------------------------------------------------------|

e--------------------15b17~---|  e|-----------------|  e|---|----|
B--------------13-------------|  B|-----------------|  B|---|----|
G--12-14~-14~-----14----------|  G|----------5------|  G|-7-|----|
D-----------------------------|  D|--5-7-7---5-7-7--|  D|-7-|----|
A-----------------------------|  A|--5-7-7---3-7-7--|  A|-5-|-5~-|
E-----------------------------|  E|--3-5-5-----5-5--|  E|---|----|

   C   G   A   F            G             C    G    A    F    G 
e|---|---|---|--------------------------|----|----|----|----------|
B|---|---|---|--------------------------|----|----|----|----------|
G|-5-|---|---|--------------------------|-5x-|----|----|----------|
D|-5-|-5-|-7-|-3x-3x-3x-3x--5x-5x-5x-5x-|-5x-|-5x-|-7x-|-3x---5x--|
A|-3-|-5-|-7-|-3x-3x-3x-3x--5x-5x-5x-5x-|-3x-|-5x-|-7x-|-3x---5x--|
E|---|-3-|-5-|-1x-1x-1x-1x--3x-3x-3x-3x-|----|-3x-|-5x-|-1x---5x--|
|__________________2x________________| |__________2x__________|

OUTRO GUIT. ELÉCTRICA
   A                        2x  F                        1x  A                      1x
e|----------------------------|----------------------------|--------------------------|--------|
B|----------------------------|----------------------------|--------------------------|--------|
G|----------------------------|----------------------------|--------------------------|--------|
D|-7xx-7xx-7x---7xx-7xx-7x-xx-|-3xx-3xx-3x---3xx-3xx-3x-xx-|-7xx-7xx-7x---7xx-7xx-7x--|-5-7-7--|
A|-7xx-7xx-7x---7xx-7xx-7x-xx-|-3xx-3xx-3x---3xx-3xx-3x-xx-|-7xx-7xx-7x---7xx-7xx-7x--|-5-7-7--|
E|-5xx-5xx-5x---5xx-5xx-5x-xx-|-1xx-1xx-1x---1xx-1xx-1x-xx-|-5xx-5xx-5x---5xx-5xx-5x--|-3-5-5--|

OUTRO GUIT ACÚSICA
   A         2x  E         4x  A         2x
e|-------0-----|-------0-----|-------0-----|
B|---1-0---0---|---------0---|---1-0---0---|
G|-----------2-|---0-------0-|-----------2-|
D|-------------|-----4-------|-------------|
A|-0-----------|-------------|-0-----------|
E|-------------|-0-----------|-------------|
            
Submit corrections

comments powered by Disqus
↑ Back to top | Mago De Oz Tabs for El Arbol De La Noche Triste. Lyrics for acoustic guitar and electric guitar. 1 Tablatures and chords are parodies/interpretations of the original songs. You may use it for private study, scholarship, research or language learning purposes only