>
 >
Diabulus In Musica

Diabulus In Musica Guitar Tabs

Mago De Oz - Diabulus In Musica chords, tabs, tablatures, lyrics

Guitar lessons | Add/correct | Request | Top 50 tabs Artists:  A B C D E F G H I J K L M N O P Q R S T U V W X Y Z 0-9

Diabulus In Musica Guitar Tabs – Mago De Oz

CD, Sheet music, Poster

Do you like Diabulus In Musica? Share with your friends now
Tabs
INTRO:
E-------17-17-------15-------13-------|
B----18-------18-------17-------15----|
G-19-------------19-------17-------15-|
D-------------------------------------|
A-------------------------------------|
E-------------------------------------|

E-------15-15-------13-------11-------|
B----16-------16-------15-------13----|
G-17-------------16-------15-------12-|
D-------------------------------------|
A-------------------------------------|
E-------------------------------------|

  Gm          F     D#     Gm          F         A#
E-----6---5-6-8-6-5-6-5--------6---5-6-8-6-5-6-5---|
B-8-----8---------------6--8-----8---------------3-|
G---7--------------------5---7---------------------|
D--------------------------------------------------|
A--------------------------------------------------|
E--------------------------------------------------|

  Gm          F     D#     Gm          F       Dm
E-----6---5-6-8-6-5-6-5--------6---5-6-8-10-11-10-|
B-8-----8---------------6--8-----8----------------|
G---7--------------------5---7--------------------|
D-------------------------------------------------|
A-------------------------------------------------|
E-------------------------------------------------|

Gm              F     D#  Gm
  Duermo en un acorde mágico,

Gm                F      A#
  y despierto al oírlo tocar,

Gm               F           D#   F
  soy la esencia de la Humanida...ad.


Gm           F         D# Gm
  Represento la promiscuidad

Gm                  F          A#
  de las almas que enferman de paz,

Gm             F      D#
  me presento: soy la libertad

        D#          F         F
  de tu cuerpo y no cobro con fe!

Gm        Gm            A#      F
  Y ahora dime: ¿cuánto vale tu alma?

          Gm        A#       C
  y ahora pide: ¿dinero o placer?

   Gm         F        A#
  ¿Sueñas con curar el cáncer?

     D#                   F
  El SIDA. fue cosa de Yahvé.


               Dm      A#    F           Gm
  Quiero estar junto a ti y alimentar tu boca,

            F        A#       F             Gm
  hay veces que el dolor, duerme en una canción.

           Dm  A#     D#      A#
  Y sé que moriré de amor decadente,

  D#       A#      F         Gm
  lúgubres besos ¡Quémate en Mí!

E-------------13-----------------------13----------|
B--------------------------------------------------|
G-12-15-14-15----15-14-15--12-15-14-15----15-14-15-|
D--------------------------------------------------|
A--------------------------------------------------|
E--------------------------------------------------|

  Gm          A#    F      Gm          A#       C
E-------------13-----------------------13--------------|
B------------------------------------------------------|
G-12-15-14-15----15-14-15--12-15-14-15----15-14--------|
D-----------------------------------------------1512---|
A------------------------------------------------------|
E------------------------------------------------------|

Gm                   F    D#   Gm
  El Príncipe de la Dulce Pena soy

Gm               F        A#
  y mi sangre alimenta tu ser.

Gm           F      D#
  La lujuria de mis alas

  D#       D#        F        F
  roza tus pechos y araña tu piel.


  Gm    A#           F
  Bebe! Embriaga tus vicios.

    Gm      A#        C
  Decide! Orgasmos o amor.

     Gm                   A#             F
  La única Iglesia que ilumina es la que arde,

     D#                      F
  el Nazareno duerme en su Cruz.


               Dm      A#    F           Gm
  Quiero estar junto a ti y alimentar tu boca,

            F        A#       F             Gm
  hay veces que el dolor, duerme en una canción.

           Dm  A#     D#      A#
  Y sé que moriré de amor decadente,

  D#       A#      F         Gm
  lúgubres besos ¡Quémate en mí!

E-------------13----------|
B-------------------------|
G-12-15-14-15----15-14-15-|
D-------------------------|
A-------------------------|
E-------------------------|

SOLO:

  Gm     F   D#  Gm                    F            A#
E-10-8-6-5-6p5---15b-13-11-10h11p10---------------------|
B-------------8--------------------11-------------------|
G------------------------------------12--10-12-14-15-12-|
D--------------------------------------12---------------|
A-------------------------------------------------------|
E-------------------------------------------------------|

E-18br21fb-
B-----------|   {   =( todavia no he sacado el solo completo   }
G-----------|   {    pero estoy trabajando sobre eso, cuando   }
D-----------|   {    lo saque lo subo, pero en cuanto a los    }
A-----------|   {  acordes, se repite otra vez Gm F D# Gm F A# }
E-----------|

  Gm          F           Gm          F
E----------------------------------------|
B----------------------------------------|
G-------------------------15-19-17-14-15-| {pausa}
D-17-20-19-15-17-20-19-15-17-20-19-15-17-|
A----------------------------------------|
E----------------------------------------|

  Gm          F     D#     Gm          F         A#
E-----6---5-6-8-6-5-6-5--------6---5-6-8-6-5-6-5---|
B-8-----8---------------6--8-----8---------------3-|
G---7--------------------5---7---------------------|
D--------------------------------------------------|
A--------------------------------------------------|
E--------------------------------------------------|

  Gm          F     D#     Gm      A A#C A#A A#A A#C D  D#
E-----6---5-6-8-6-5-6-5--------6---5-6-8-6-5-6-5-6-8-10-11-|
B-8-----8---------------6--8-----8-------------------------|
G---7--------------------5---7-----------------------------|
D----------------------------------------------------------|
A----------------------------------------------------------|
E----------------------------------------------------------|

E----------------------------------------------------|
B-----------------------------------------6-6--------|  { esto }
G-7-7-5-5-7-7--7-7--5-5--7-7-5-5-7-7--7-7-----5-5----|  {  va  }
D----------------------------------------------------|  { con  }
A----------------------------------------------------|  {violín}
E----------------------------------------------------|

      Gm         A#        F
  “Oh Señor, rey de la tristeza,

  Gm        A#      F
  ángel del dulce dolor,

  Gm      A#         F
  bebe la hiel de mi boca,

      D#                   F
  blasfema, ven, hazme el amor”.


               Dm      A#    F           Gm
  Quiero estar junto a ti y alimentar tu boca,

            F        A#       F             Gm
  hay veces que el dolor, duerme en una canción.

           Dm  A#     D#      A#
  Y sé que moriré de amor decadente,

  D#       A#      F         Gm
  lúgubres besos ¡Quémate en Mí!


               Dm      A#    F           Gm
  Quiero estar junto a ti y alimentar tu boca,

            F        A#       F             Gm
  hay veces que el dolor, duerme en una canción.

           Dm      A#     D#              A#
  Si tocas en mi honor, saldré de este infierno,

  D#       A#      F         Dm
  dame tu alma, no quiero morir.


OUTRO:

  Dm
E-------17-17-------15-------13-------|
B----18-------18-------17-------15----|  { Se repite otra vez }
G-19-------------19-------17-------15-|  {  y se sigue en el  }
D-------------------------------------|  {  mismo acorde (Dm) }
A-------------------------------------|
E-------------------------------------|

  G#
E-------15-15-------13-------11-------|
B----16-------16-------15-------13----|
G-17-------------17-------15-------12-|  { Se repite otra vez  }
D-------------------------------------|  { pero se cambia a F# }
A-------------------------------------|
E-------------------------------------|
      (se repite la misma figura pero ahora con violín)

  Dm Dm Dm
E-------17-|
B----18----|
G-19-------|
D----------|
A----------|
E----------|





Comments


Popular Mago De Oz tabs & chords
Hasta Que El Cuerpo Aguante Bass Tabs
La Rosa De Los Vientos Chords
No Me Digas Adios Chords
Al-Mejandria Tabs
Hoy Te Toca Ser Feliz Tabs
Jesus De Chamberi Tabs
La Santa Compaa Tabs
La Voz Dormida Tabs
Molinos De Viento 5 Tabs
Molinos De Viento (Solo) Tabs


Song lyrics



↑ Back to top | Tablatures and chords are parodies/interpretations of the original songs. You may use it for private study, scholarship, research or language learning purposes only
© 2014 AZChords.com Contact us | Privacy policy | DMCA | Add/correct tabs | Request tabs | Top 50 tabs